  0
SECTION
  2
HEADER
  9
$ACADVER
  1
AC1004
  9
$INSBASE
 10
0.0
 20
0.0
  9
$EXTMIN
 10
21.079566094904
 20
-9.288998569881
  9
$EXTMAX
 10
408.079566094904
 20
274.806992713021
  9
$LIMMIN
 10
0.0
 20
0.0
  9
$LIMMAX
 10
420.0
 20
300.0
  9
$ORTHOMODE
 70
     1
  9
$REGENMODE
 70
     1
  9
$FILLMODE
 70
     1
  9
$QTEXTMODE
 70
     0
  9
$DRAGMODE
 70
     2
  9
$LTSCALE
 40
1.0
  9
$OSMODE
 70
   183
  9
$ATTMODE
 70
     1
  9
$TEXTSIZE
 40
2.5
  9
$TRACEWID
 40
1.0
  9
$TEXTSTYLE
  7
STANDARD
  9
$CLAYER
  8
SUNPOUSEN
  9
$CELTYPE
  6
BYLAYER
  9
$CECOLOR
 62
     5
  9
$DIMSCALE
 40
0.0
  9
$DIMASZ
 40
2.5
  9
$DIMEXO
 40
2.0
  9
$DIMDLI
 40
3.75
  9
$DIMRND
 40
0.0
  9
$DIMDLE
 40
0.0
  9
$DIMEXE
 40
1.25
  9
$DIMTP
 40
0.0
  9
$DIMTM
 40
0.0
  9
$DIMTXT
 40
2.5
  9
$DIMCEN
 40
-1.5
  9
$DIMTSZ
 40
0.0
  9
$DIMTOL
 70
     0
  9
$DIMLIM
 70
     0
  9
$DIMTIH
 70
     0
  9
$DIMTOH
 70
     0
  9
$DIMSE1
 70
     0
  9
$DIMSE2
 70
     0
  9
$DIMTAD
 70
     3
  9
$DIMZIN
 70
     8
  9
$DIMBLK
  1

  9
$DIMASO
 70
     1
  9
$DIMSHO
 70
     1
  9
$DIMPOST
  1

  9
$DIMAPOST
  1

  9
$DIMALT
 70
     0
  9
$DIMALTD
 70
     4
  9
$DIMALTF
 40
0.0394
  9
$DIMLFAC
 40
1.0
  9
$DIMTOFL
 70
     1
  9
$DIMTVP
 40
0.0
  9
$DIMTIX
 70
     0
  9
$DIMSOXD
 70
     0
  9
$DIMSAH
 70
     0
  9
$DIMBLK1
  1

  9
$DIMBLK2
  1

  9
$LUNITS
 70
     2
  9
$LUPREC
 70
     4
  9
$SKETCHINC
 40
1.0
  9
$FILLETRAD
 40
0.03
  9
$AUNITS
 70
     0
  9
$AUPREC
 70
     0
  9
$MENU
  1
acad
  9
$ELEVATION
 40
0.0
  9
$THICKNESS
 40
0.0
  9
$LIMCHECK
 70
     0
  9
$CHAMFERA
 40
0.0
  9
$CHAMFERB
 40
0.0
  9
$SKPOLY
 70
     0
  9
$TDCREATE
 40
2451887.421066204
  9
$TDUPDATE
 40
2459738.408958958
  9
$TDINDWG
 40
1.9988305556
  9
$TDUSRTIMER
 40
1.9988305556
  9
$USRTIMER
 70
     1
  9
$ANGBASE
 50
0.0
  9
$ANGDIR
 70
     0
  9
$PDMODE
 70
     0
  9
$PDSIZE
 40
0.0
  9
$PLINEWID
 40
0.0
  9
$COORDS
 70
     1
  9
$SPLFRAME
 70
     0
  9
$SPLINETYPE
 70
     6
  9
$SPLINESEGS
 70
     8
  9
$ATTDIA
 70
     0
  9
$ATTREQ
 70
     1
  9
$SURFTAB1
 70
     6
  9
$SURFTAB2
 70
     6
  9
$SURFTYPE
 70
     6
  9
$SURFU
 70
     6
  9
$SURFV
 70
     6
  9
$UCSNAME
  2

  9
$UCSORG
 10
0.0
 20
0.0
 30
0.0
  9
$UCSXDIR
 10
1.0
 20
0.0
 30
0.0
  9
$UCSYDIR
 10
0.0
 20
1.0
 30
0.0
  9
$USERI1
 70
     0
  9
$USERI2
 70
     0
  9
$USERI3
 70
     0
  9
$USERI4
 70
     0
  9
$USERI5
 70
     0
  9
$USERR1
 40
0.0
  9
$USERR2
 40
0.0
  9
$USERR3
 40
0.0
  9
$USERR4
 40
0.0
  9
$USERR5
 40
0.0
  9
$WORLDVIEW
 70
     1
  0
ENDSEC
  0
SECTION
  2
TABLES
  0
TABLE
  2
LTYPE
 70
     2
  0
LTYPE
  2
CONTINUOUS
 70
     0
  3
Solid line
 72
    65
 73
     0
 40
0.0
  0
LTYPE
  2
HIDDENX2
 70
     0
  3
Hidden (2x) ____ ____ ____ ____ ____ ____ ____
 72
    65
 73
     2
 40
19.05
 49
12.7
 49
-6.35
  0
ENDTAB
  0
TABLE
  2
LAYER
 70
    12
  0
LAYER
  2
0
 70
     0
 62
     7
  6
CONTINUOUS
  0
LAYER
  2
MOJI
 70
     0
 62
     7
  6
CONTINUOUS
  0
LAYER
  2
SAKUZU2
 70
     0
 62
     5
  6
CONTINUOUS
  0
LAYER
  2
HASEN
 70
     0
 62
     3
  6
HIDDENX2
  0
LAYER
  2
SUNPOUSEN
 70
     0
 62
     6
  6
CONTINUOUS
  0
LAYER
  2
DEFPOINTS
 70
     0
 62
     7
  6
CONTINUOUS
  0
LAYER
  2
図面枠
 70
     0
 62
     7
  6
CONTINUOUS
  0
LAYER
  2
SAKUZU1
 70
     0
 62
     7
  6
CONTINUOUS
  0
LAYER
  2
HATCH
 70
     0
 62
     7
  6
CONTINUOUS
  0
LAYER
  2
細線
 70
     0
 62
     1
  6
CONTINUOUS
  0
LAYER
  2
PT
 70
     0
 62
     4
  6
CONTINUOUS
  0
LAYER
  2
MOZI
 70
     0
 62
     6
  6
CONTINUOUS
  0
ENDTAB
  0
TABLE
  2
STYLE
 70
     4
  0
STYLE
  2
STANDARD
 70
     0
 40
0.0
 41
1.0
 50
0.0
 71
     0
 42
2.5
  3
txt.shx
  4
KELF1-K.shx
  0
STYLE
  2
ＭＳゴシック
 70
     0
 40
0.0
 41
1.0
 50
0.0
 71
     0
 42
2.5
  3
msgothic.ttc
  4

  0
STYLE
  2
MSGOTHIC2
 70
     0
 40
0.0
 41
1.0
 50
0.0
 71
     0
 42
2.5
  3
msgothic.ttc
  4

  0
STYLE
  2
_丸ゴシック
 70
     0
 40
0.0
 41
1.0
 50
0.0
 71
     0
 42
2.5
  3
@DFGMaruGothic-Bd.ttf
  4

  0
ENDTAB
  0
TABLE
  2
VIEW
 70
     0
  0
ENDTAB
  0
ENDSEC
  0
SECTION
  2
BLOCKS
  0
BLOCK
  8
0
  2
*U0
 70
     1
 10
0.0
 20
0.0
  0
SOLID
  8
SAKUZU1
  6
CONTINUOUS
 62
     7
 10
176.535554429195
 20
113.089028414482
 11
176.535554429195
 21
113.329665152212
 12
179.61717703845
 22
113.042476349505
 13
179.61717703845
 23
113.042476349505
  0
SOLID
  8
SAKUZU1
  6
CONTINUOUS
 62
     7
 10
179.61717703845
 20
113.042476349505
 11
176.535554429195
 21
113.329665152212
 12
179.61717703845
 22
113.376217217189
 13
179.61717703845
 23
113.376217217189
  0
ENDBLK
  8
0
  0
BLOCK
  8
0
  2
*U1
 70
     1
 10
0.0
 20
0.0
  0
SOLID
  8
SAKUZU1
  6
CONTINUOUS
 62
     7
 10
97.435297436736
 20
68.020174948042
 11
97.404212856323
 21
68.378611298899
 12
97.435297436736
 22
68.380224432624
 13
97.435297436736
 23
68.380224432624
  0
SOLID
  8
SAKUZU1
  6
CONTINUOUS
 62
     7
 10
97.435297436736
 20
68.020174948042
 11
97.435297436736
 21
68.380224432624
 12
98.86852773734
 22
68.097805755519
 13
98.86852773734
 23
68.097805755519
  0
SOLID
  8
SAKUZU1
  6
CONTINUOUS
 62
     7
 10
98.86852773734
 20
68.097805755519
 11
97.435297436736
 21
68.380224432624
 12
98.86852773734
 22
68.454601892534
 13
98.86852773734
 23
68.454601892534
  0
SOLID
  8
SAKUZU1
  6
CONTINUOUS
 62
     7
 10
98.86852773734
 20
68.097805755519
 11
98.86852773734
 21
68.454601892534
 12
98.882953916631
 22
68.098587148395
 13
98.882953916631
 23
68.098587148395
  0
SOLID
  8
SAKUZU1
  6
CONTINUOUS
 62
     7
 10
107.234142358925
 20
68.737968319076
 11
107.208274950282
 21
69.096818909051
 12
107.234142358925
 22
69.097784256916
 13
107.234142358925
 23
69.097784256916
  0
SOLID
  8
SAKUZU1
  6
CONTINUOUS
 62
     7
 10
107.234142358925
 20
68.737968319076
 11
107.234142358925
 21
69.097784256916
 12
108.673540278276
 22
68.794948326276
 13
108.673540278276
 23
68.794948326276
  0
SOLID
  8
SAKUZU1
  6
CONTINUOUS
 62
     7
 10
108.673540278276
 20
68.794948326276
 11
107.234142358925
 21
69.097784256916
 12
108.673540278276
 22
69.151501261459
 13
108.673540278276
 23
69.151501261459
  0
SOLID
  8
SAKUZU1
  6
CONTINUOUS
 62
     7
 10
108.673540278276
 20
68.794948326276
 11
108.673540278276
 21
69.151501261459
 12
108.682786273429
 22
68.795314338248
 13
108.682786273429
 23
68.795314338248
  0
ENDBLK
  8
0
  0
BLOCK
  8
0
  2
*U2
 70
     1
 10
0.0
 20
0.0
  0
SOLID
  8
SAKUZU1
  6
CONTINUOUS
 62
     7
 10
157.84872965041
 20
192.17485567503
 11
157.696548863252
 21
192.332012953872
 12
157.84872965041
 22
192.455196062855
 13
157.84872965041
 23
192.455196062855
  0
SOLID
  8
SAKUZU1
  6
CONTINUOUS
 62
     7
 10
157.84872965041
 20
192.17485567503
 11
157.84872965041
 21
192.455196062855
 12
157.86658748802
 22
192.17093345277
 13
157.86658748802
 23
192.17093345277
  0
SOLID
  8
SAKUZU1
  6
CONTINUOUS
 62
     7
 10
157.86658748802
 20
192.17093345277
 11
157.84872965041
 21
192.455196062855
 12
157.86658748802
 22
192.469651133023
 13
157.86658748802
 23
192.469651133023
  0
SOLID
  8
SAKUZU1
  6
CONTINUOUS
 62
     7
 10
157.86658748802
 20
192.17093345277
 11
157.86658748802
 21
192.469651133023
 12
158.23398440831
 22
192.090239899017
 13
158.23398440831
 23
192.090239899017
  0
SOLID
  8
SAKUZU1
  6
CONTINUOUS
 62
     7
 10
158.23398440831
 20
192.090239899017
 11
157.86658748802
 21
192.469651133023
 12
158.23398440831
 22
192.504732169872
 13
158.23398440831
 23
192.504732169872
  0
SOLID
  8
SAKUZU1
  6
CONTINUOUS
 62
     7
 10
158.23398440831
 20
192.090239899017
 11
158.23398440831
 21
192.504732169872
 12
158.259239204453
 22
192.092651362982
 13
158.259239204453
 23
192.092651362982
  0
SOLID
  8
SAKUZU1
  6
CONTINUOUS
 62
     7
 10
158.259239204453
 20
192.092651362982
 11
158.23398440831
 21
192.504732169872
 12
158.259239204453
 22
192.507143633837
 13
158.259239204453
 23
192.507143633837
  0
SOLID
  8
SAKUZU1
  6
CONTINUOUS
 62
     7
 10
158.259239204453
 20
192.092651362982
 11
158.259239204453
 21
192.507143633837
 12
158.626636124743
 22
192.127732399831
 13
158.626636124743
 23
192.127732399831
  0
SOLID
  8
SAKUZU1
  6
CONTINUOUS
 62
     7
 10
158.626636124743
 20
192.127732399831
 11
158.259239204453
 21
192.507143633837
 12
158.626636124743
 22
192.426450080084
 13
158.626636124743
 23
192.426450080084
  0
SOLID
  8
SAKUZU1
  6
CONTINUOUS
 62
     7
 10
158.626636124743
 20
192.127732399831
 11
158.626636124743
 21
192.426450080084
 12
158.644493962353
 22
192.142187469998
 13
158.644493962353
 23
192.142187469998
  0
SOLID
  8
SAKUZU1
  6
CONTINUOUS
 62
     7
 10
158.644493962353
 20
192.142187469998
 11
158.626636124743
 21
192.426450080084
 12
158.644493962353
 22
192.422527857824
 13
158.644493962353
 23
192.422527857824
  0
SOLID
  8
SAKUZU1
  6
CONTINUOUS
 62
     7
 10
158.644493962353
 20
192.142187469998
 11
158.644493962353
 21
192.422527857824
 12
158.796674749511
 22
192.265370578982
 13
158.796674749511
 23
192.265370578982
  0
ENDBLK
  8
0
  0
BLOCK
  8
0
  2
*X3
 70
     1
 10
0.0
 20
0.0
  0
TEXT
  8
SUNPOUSEN
  6
CONTINUOUS
 62
     7
 10
187.015478755216
 20
108.025355019037
 40
3.5
  1
磁気カード
  0
TEXT
  8
SUNPOUSEN
  6
CONTINUOUS
 62
     7
 10
186.789672303603
 20
103.650355019037
 40
3.5
  1
スイッチ
  0
ENDBLK
  8
0
  0
BLOCK
  8
0
  2
*X4
 70
     1
 10
0.0
 20
0.0
  0
TEXT
  8
SUNPOUSEN
  6
CONTINUOUS
 62
     7
 10
64.159156276104
 20
85.995248227813
 40
3.5
  1
ワイヤレス
  0
TEXT
  8
SUNPOUSEN
  6
CONTINUOUS
 62
     7
 10
64.384962727717
 20
81.620248227813
 40
3.5
  1
タッチスイッチ
  0
ENDBLK
  8
0
  0
BLOCK
  8
0
  2
*X5
 70
     1
 10
0.0
 20
0.0
  0
TEXT
  8
MOJI
  6
CONTINUOUS
 62
     7
 10
292.483472859826
 20
19.243277543749
 40
3.5
  1
足を差し込むだけでドアが開閉できます。
  0
TEXT
  8
MOJI
  6
CONTINUOUS
 62
     7
 10
292.483472859826
 20
12.826610877082
 40
3.5
  1
病院の手術室等に適しています。
  0
ENDBLK
  8
0
  0
BLOCK
  8
0
  2
*X6
 70
     1
 10
0.0
 20
0.0
  0
TEXT
  8
MOJI
  6
CONTINUOUS
 62
     7
 10
292.37056963402
 20
4.933750376663
 40
3.5
  1
ペダル部を軽く踏む動作で、堅牢、
  0
TEXT
  8
MOJI
  6
CONTINUOUS
 62
     7
 10
292.483472859826
 20
-1.482916290003
 40
3.5
  1
防爆性に優れています。
  0
ENDBLK
  8
0
  0
BLOCK
  8
0
  2
*X7
 70
     1
 10
0.0
 20
0.0
  0
TEXT
  8
MOJI
  6
CONTINUOUS
 62
     7
 10
292.483472859826
 20
129.461990673666
 40
3.5
  1
車外へ降りることなく遠隔操作します。
  0
TEXT
  8
MOJI
  6
CONTINUOUS
 62
     7
 10
292.483472859826
 20
123.628657340333
 40
3.5
  1
邸宅等の門扉開閉に適しています。
  0
ENDBLK
  8
0
  0
BLOCK
  8
0
  2
*U8
 70
     1
 10
0.0
 20
0.0
  0
SOLID
  8
SAKUZU1
  6
CONTINUOUS
 62
     7
 10
128.49844972894
 20
99.131788107367
 11
128.420833573305
 21
99.425833775009
 12
128.49844972894
 22
99.719879442651
 13
128.49844972894
 23
99.719879442651
  0
SOLID
  8
SAKUZU1
  6
CONTINUOUS
 62
     7
 10
128.49844972894
 20
99.131788107367
 11
128.49844972894
 21
99.719879442651
 12
128.685831704533
 22
99.009990403873
 13
128.685831704533
 23
99.009990403873
  0
SOLID
  8
SAKUZU1
  6
CONTINUOUS
 62
     7
 10
128.685831704533
 20
99.009990403873
 11
128.49844972894
 21
99.719879442651
 12
128.685831704533
 22
99.841677146145
 13
128.685831704533
 23
99.841677146145
  0
SOLID
  8
SAKUZU1
  6
CONTINUOUS
 62
     7
 10
128.685831704533
 20
99.009990403873
 11
128.685831704533
 21
99.841677146145
 12
128.873213680126
 22
99.131788107367
 13
128.873213680126
 23
99.131788107367
  0
SOLID
  8
SAKUZU1
  6
CONTINUOUS
 62
     7
 10
128.873213680126
 20
99.131788107367
 11
128.685831704533
 21
99.841677146145
 12
128.873213680126
 22
99.719879442651
 13
128.873213680126
 23
99.719879442651
  0
SOLID
  8
SAKUZU1
  6
CONTINUOUS
 62
     7
 10
128.873213680126
 20
99.131788107367
 11
128.873213680126
 21
99.719879442651
 12
128.950829835762
 22
99.425833775009
 13
128.950829835762
 23
99.425833775009
  0
ENDBLK
  8
0
  0
BLOCK
  8
0
  2
*U9
 70
     1
 10
0.0
 20
0.0
  0
SOLID
  8
図面枠
  6
CONTINUOUS
 62
     7
 10
373.073041003535
 20
-6.749451166231
 11
372.85975514199
 21
-6.735393897126
 12
373.073041003535
 22
-6.659401980893
 13
373.073041003535
 23
-6.659401980893
  0
SOLID
  8
図面枠
  6
CONTINUOUS
 62
     7
 10
373.073041003535
 20
-6.749451166231
 11
373.073041003535
 21
-6.659401980893
 12
373.188723864863
 22
-6.757075605567
 13
373.188723864863
 23
-6.757075605567
  0
SOLID
  8
図面枠
  6
CONTINUOUS
 62
     7
 10
373.188723864863
 20
-6.757075605567
 11
373.073041003535
 21
-6.659401980893
 12
373.188723864863
 22
-6.652127661774
 13
373.188723864863
 23
-6.652127661774
  0
SOLID
  8
図面枠
  6
CONTINUOUS
 62
     7
 10
373.188723864863
 20
-6.757075605567
 11
373.188723864863
 21
-6.652127661774
 12
373.293530559742
 22
-6.767951772017
 13
373.293530559742
 23
-6.767951772017
  0
SOLID
  8
図面枠
  6
CONTINUOUS
 62
     7
 10
373.293530559742
 20
-6.767951772017
 11
373.188723864863
 21
-6.652127661774
 12
373.293530559742
 22
-6.666685897803
 13
373.293530559742
 23
-6.666685897803
  0
SOLID
  8
図面枠
  6
CONTINUOUS
 62
     7
 10
373.293530559742
 20
-6.767951772017
 11
373.293530559742
 21
-6.666685897803
 12
373.423620810393
 22
-6.842347417801
 13
373.423620810393
 23
-6.842347417801
  0
SOLID
  8
図面枠
  6
CONTINUOUS
 62
     7
 10
373.423620810393
 20
-6.842347417801
 11
373.293530559742
 21
-6.666685897803
 12
373.423620810393
 22
-6.684756161123
 13
373.423620810393
 23
-6.684756161123
  0
SOLID
  8
図面枠
  6
CONTINUOUS
 62
     7
 10
373.423620810393
 20
-6.842347417801
 11
373.423620810393
 21
-6.684756161123
 12
373.495940254837
 22
-6.883705257803
 13
373.495940254837
 23
-6.883705257803
  0
SOLID
  8
図面枠
  6
CONTINUOUS
 62
     7
 10
373.495940254837
 20
-6.883705257803
 11
373.423620810393
 21
-6.684756161123
 12
373.495940254837
 22
-6.721560264961
 13
373.495940254837
 23
-6.721560264961
  0
SOLID
  8
図面枠
  6
CONTINUOUS
 62
     7
 10
373.495940254837
 20
-6.883705257803
 11
373.495940254837
 21
-6.721560264961
 12
373.586339560393
 22
-7.010405534495
 13
373.586339560393
 23
-7.010405534495
  0
SOLID
  8
図面枠
  6
CONTINUOUS
 62
     7
 10
373.586339560393
 20
-7.010405534495
 11
373.495940254837
 21
-6.721560264961
 12
373.586339560393
 22
-6.767565394759
 13
373.586339560393
 23
-6.767565394759
  0
SOLID
  8
図面枠
  6
CONTINUOUS
 62
     7
 10
373.586339560393
 20
-7.010405534495
 11
373.586339560393
 21
-6.767565394759
 12
373.629702977277
 22
-7.154370294046
 13
373.629702977277
 23
-7.154370294046
  0
SOLID
  8
図面枠
  6
CONTINUOUS
 62
     7
 10
373.629702977277
 20
-7.154370294046
 11
373.586339560393
 21
-6.767565394759
 12
373.629702977277
 22
-6.789633480459
 13
373.629702977277
 23
-6.789633480459
  0
SOLID
  8
図面枠
  6
CONTINUOUS
 62
     7
 10
373.629702977277
 20
-7.154370294046
 11
373.629702977277
 21
-6.789633480459
 12
373.654986533049
 22
-7.238310658736
 13
373.654986533049
 23
-7.238310658736
  0
SOLID
  8
図面枠
  6
CONTINUOUS
 62
     7
 10
373.654986533049
 20
-7.238310658736
 11
373.629702977277
 21
-6.789633480459
 12
373.654986533049
 22
-6.81088746953
 13
373.654986533049
 23
-6.81088746953
  0
SOLID
  8
図面枠
  6
CONTINUOUS
 62
     7
 10
373.654986533049
 20
-7.238310658736
 11
373.654986533049
 21
-6.81088746953
 12
373.67306639416
 22
-7.545880170997
 13
373.67306639416
 23
-7.545880170997
  0
SOLID
  8
図面枠
  6
CONTINUOUS
 62
     7
 10
373.67306639416
 20
-7.545880170997
 11
373.654986533049
 21
-6.81088746953
 12
373.67306639416
 22
-6.826085852777
 13
373.67306639416
 23
-6.826085852777
  0
SOLID
  8
図面枠
  6
CONTINUOUS
 62
     7
 10
373.67306639416
 20
-7.545880170997
 11
373.67306639416
 21
-6.826085852777
 12
373.720102282832
 22
-7.545880170997
 13
373.720102282832
 23
-7.545880170997
  0
SOLID
  8
図面枠
  6
CONTINUOUS
 62
     7
 10
373.720102282832
 20
-7.545880170997
 11
373.67306639416
 21
-6.826085852777
 12
373.720102282832
 22
-6.865625396691
 13
373.720102282832
 23
-6.865625396691
  0
SOLID
  8
図面枠
  6
CONTINUOUS
 62
     7
 10
373.720102282832
 20
-7.545880170997
 11
373.720102282832
 21
-6.865625396691
 12
373.83578514416
 22
-7.545880170997
 13
373.83578514416
 23
-7.545880170997
  0
SOLID
  8
図面枠
  6
CONTINUOUS
 62
     7
 10
373.83578514416
 20
-7.545880170997
 11
373.720102282832
 21
-6.865625396691
 12
373.83578514416
 22
-7.028485395606
 13
373.83578514416
 23
-7.028485395606
  0
SOLID
  8
図面枠
  6
CONTINUOUS
 62
     7
 10
373.83578514416
 20
-7.545880170997
 11
373.83578514416
 21
-7.028485395606
 12
373.908104588605
 22
-7.545880170997
 13
373.908104588605
 23
-7.545880170997
  0
SOLID
  8
図面枠
  6
CONTINUOUS
 62
     7
 10
373.908104588605
 20
-7.545880170997
 11
373.83578514416
 21
-7.028485395606
 12
373.908104588605
 22
-7.252788672516
 13
373.908104588605
 23
-7.252788672516
  0
SOLID
  8
図面枠
  6
CONTINUOUS
 62
     7
 10
373.908104588605
 20
-7.545880170997
 11
373.908104588605
 21
-7.252788672516
 12
373.940591839039
 22
-7.545880170997
 13
373.940591839039
 23
-7.545880170997
  0
ENDBLK
  8
0
  0
BLOCK
  8
0
  2
*U10
 70
     1
 10
0.0
 20
0.0
  0
SOLID
  8
図面枠
  6
CONTINUOUS
 62
     7
 10
372.932074586435
 20
-8.620572540246
 11
372.729664891339
 21
-8.515624596453
 12
372.932074586435
 22
-8.514036458845
 13
372.932074586435
 23
-8.514036458845
  0
SOLID
  8
図面枠
  6
CONTINUOUS
 62
     7
 10
372.932074586435
 20
-8.620572540246
 11
372.932074586435
 21
-8.514036458845
 12
373.174316475541
 22
-8.653130415138
 13
373.174316475541
 23
-8.653130415138
  0
SOLID
  8
図面枠
  6
CONTINUOUS
 62
     7
 10
373.174316475541
 20
-8.653130415138
 11
372.932074586435
 21
-8.514036458845
 12
373.174316475541
 22
-8.512135791715
 13
373.174316475541
 23
-8.512135791715
  0
SOLID
  8
図面枠
  6
CONTINUOUS
 62
     7
 10
373.174316475541
 20
-8.653130415138
 11
373.174316475541
 21
-8.512135791715
 12
373.188723864863
 22
-8.652411455396
 13
373.188723864863
 23
-8.652411455396
  0
SOLID
  8
図面枠
  6
CONTINUOUS
 62
     7
 10
373.188723864863
 20
-8.652411455396
 11
373.174316475541
 21
-8.512135791715
 12
373.188723864863
 22
-8.512022749122
 13
373.188723864863
 23
-8.512022749122
  0
SOLID
  8
図面枠
  6
CONTINUOUS
 62
     7
 10
373.188723864863
 20
-8.652411455396
 11
373.188723864863
 21
-8.512022749122
 12
373.24649467107
 22
-8.649528567807
 13
373.24649467107
 23
-8.649528567807
  0
SOLID
  8
図面枠
  6
CONTINUOUS
 62
     7
 10
373.24649467107
 20
-8.649528567807
 11
373.188723864863
 21
-8.512022749122
 12
373.24649467107
 22
-8.502797739297
 13
373.24649467107
 23
-8.502797739297
  0
SOLID
  8
図面枠
  6
CONTINUOUS
 62
     7
 10
373.24649467107
 20
-8.649528567807
 11
373.24649467107
 21
-8.502797739297
 12
373.438169448631
 22
-8.600807762599
 13
373.438169448631
 23
-8.600807762599
  0
SOLID
  8
図面枠
  6
CONTINUOUS
 62
     7
 10
373.438169448631
 20
-8.600807762599
 11
373.24649467107
 21
-8.502797739297
 12
373.438169448631
 22
-8.472190555112
 13
373.438169448631
 23
-8.472190555112
  0
SOLID
  8
図面枠
  6
CONTINUOUS
 62
     7
 10
373.438169448631
 20
-8.600807762599
 11
373.438169448631
 21
-8.472190555112
 12
373.474329170853
 22
-8.591616512685
 13
373.474329170853
 23
-8.591616512685
  0
SOLID
  8
図面枠
  6
CONTINUOUS
 62
     7
 10
373.474329170853
 20
-8.591616512685
 11
373.438169448631
 21
-8.472190555112
 12
373.474329170853
 22
-8.449872522069
 13
373.474329170853
 23
-8.449872522069
  0
SOLID
  8
図面枠
  6
CONTINUOUS
 62
     7
 10
373.474329170853
 20
-8.591616512685
 11
373.474329170853
 21
-8.449872522069
 12
373.608091893292
 22
-8.492471038978
 13
373.608091893292
 23
-8.492471038978
  0
SOLID
  8
図面枠
  6
CONTINUOUS
 62
     7
 10
373.608091893292
 20
-8.492471038978
 11
373.474329170853
 21
-8.449872522069
 12
373.608091893292
 22
-8.367313235776
 13
373.608091893292
 23
-8.367313235776
  0
SOLID
  8
図面枠
  6
CONTINUOUS
 62
     7
 10
373.608091893292
 20
-8.492471038978
 11
373.608091893292
 21
-8.367313235776
 12
373.654986533049
 22
-8.457712541331
 13
373.654986533049
 23
-8.457712541331
  0
SOLID
  8
図面枠
  6
CONTINUOUS
 62
     7
 10
373.654986533049
 20
-8.457712541331
 11
373.608091893292
 21
-8.367313235776
 12
373.654986533049
 22
-8.299884570394
 13
373.654986533049
 23
-8.299884570394
  0
SOLID
  8
図面枠
  6
CONTINUOUS
 62
     7
 10
373.654986533049
 20
-8.457712541331
 11
373.654986533049
 21
-8.299884570394
 12
373.749058310393
 22
-8.343227088967
 13
373.749058310393
 23
-8.343227088967
  0
SOLID
  8
図面枠
  6
CONTINUOUS
 62
     7
 10
373.749058310393
 20
-8.343227088967
 11
373.654986533049
 21
-8.299884570394
 12
373.749058310393
 22
-8.16462104285
 13
373.749058310393
 23
-8.16462104285
  0
SOLID
  8
図面枠
  6
CONTINUOUS
 62
     7
 10
373.749058310393
 20
-8.343227088967
 11
373.749058310393
 21
-8.16462104285
 12
373.788749255488
 22
-8.294923166874
 13
373.788749255488
 23
-8.294923166874
  0
SOLID
  8
図面枠
  6
CONTINUOUS
 62
     7
 10
373.788749255488
 20
-8.294923166874
 11
373.749058310393
 21
-8.16462104285
 12
373.788749255488
 22
-8.080666065507
 13
373.788749255488
 23
-8.080666065507
  0
SOLID
  8
図面枠
  6
CONTINUOUS
 62
     7
 10
373.788749255488
 20
-8.294923166874
 11
373.788749255488
 21
-8.080666065507
 12
373.814032811261
 22
-8.245162627095
 13
373.814032811261
 23
-8.245162627095
  0
SOLID
  8
図面枠
  6
CONTINUOUS
 62
     7
 10
373.814032811261
 20
-8.245162627095
 11
373.788749255488
 21
-8.080666065507
 12
373.814032811261
 22
-8.027185848623
 13
373.814032811261
 23
-8.027185848623
  0
SOLID
  8
図面枠
  6
CONTINUOUS
 62
     7
 10
373.814032811261
 20
-8.245162627095
 11
373.814032811261
 21
-8.027185848623
 12
373.897228422155
 22
-8.081425431956
 13
373.897228422155
 23
-8.081425431956
  0
ENDBLK
  8
0
  0
BLOCK
  8
0
  2
*U11
 70
     1
 10
0.0
 20
0.0
  0
SOLID
  8
図面枠
  6
CONTINUOUS
 62
     7
 10
372.389820002016
 20
-7.741298044803
 11
372.386147530228
 21
-7.614668392568
 12
372.389820002016
 22
-7.574944489392
 13
372.389820002016
 23
-7.574944489392
  0
SOLID
  8
図面枠
  6
CONTINUOUS
 62
     7
 10
372.389820002016
 20
-7.741298044803
 11
372.389820002016
 21
-7.574944489392
 12
372.411572334916
 22
-7.908901469193
 13
372.411572334916
 23
-7.908901469193
  0
SOLID
  8
図面枠
  6
CONTINUOUS
 62
     7
 10
372.411572334916
 20
-7.908901469193
 11
372.389820002016
 21
-7.574944489392
 12
372.411572334916
 22
-7.339656755198
 13
372.411572334916
 23
-7.339656755198
  0
SOLID
  8
図面枠
  6
CONTINUOUS
 62
     7
 10
372.411572334916
 20
-7.908901469193
 11
372.411572334916
 21
-7.339656755198
 12
372.425979724239
 22
-8.019911529504
 13
372.425979724239
 23
-8.019911529504
  0
SOLID
  8
図面枠
  6
CONTINUOUS
 62
     7
 10
372.425979724239
 20
-8.019911529504
 11
372.411572334916
 21
-7.339656755198
 12
372.425979724239
 22
-7.297048756579
 13
372.425979724239
 23
-7.297048756579
  0
SOLID
  8
図面枠
  6
CONTINUOUS
 62
     7
 10
372.425979724239
 20
-8.019911529504
 11
372.425979724239
 21
-7.297048756579
 12
372.491095474021
 22
-8.20658438945
 13
372.491095474021
 23
-8.20658438945
  0
SOLID
  8
図面枠
  6
CONTINUOUS
 62
     7
 10
372.491095474021
 20
-8.20658438945
 11
372.425979724239
 21
-7.297048756579
 12
372.491095474021
 22
-7.104477311839
 13
372.491095474021
 23
-7.104477311839
  0
SOLID
  8
図面枠
  6
CONTINUOUS
 62
     7
 10
372.491095474021
 20
-8.20658438945
 11
372.491095474021
 21
-7.104477311839
 12
372.505502863344
 22
-8.247887278202
 13
372.505502863344
 23
-8.247887278202
  0
SOLID
  8
図面枠
  6
CONTINUOUS
 62
     7
 10
372.505502863344
 20
-8.247887278202
 11
372.491095474021
 21
-7.104477311839
 12
372.505502863344
 22
-7.084191220319
 13
372.505502863344
 23
-7.084191220319
  0
SOLID
  8
図面枠
  6
CONTINUOUS
 62
     7
 10
372.505502863344
 20
-8.247887278202
 11
372.505502863344
 21
-7.084191220319
 12
372.624716947546
 22
-8.416362814438
 13
372.624716947546
 23
-8.416362814438
  0
SOLID
  8
図面枠
  6
CONTINUOUS
 62
     7
 10
372.624716947546
 20
-8.416362814438
 11
372.505502863344
 21
-7.084191220319
 12
372.624716947546
 22
-6.916333757152
 13
372.624716947546
 23
-6.916333757152
  0
SOLID
  8
図面枠
  6
CONTINUOUS
 62
     7
 10
372.624716947546
 20
-8.416362814438
 11
372.624716947546
 21
-6.916333757152
 12
372.628389419334
 22
-8.421552819109
 13
372.628389419334
 23
-8.421552819109
  0
SOLID
  8
図面枠
  6
CONTINUOUS
 62
     7
 10
372.628389419334
 20
-8.421552819109
 11
372.624716947546
 21
-6.916333757152
 12
372.628389419334
 22
-6.913019925186
 13
372.628389419334
 23
-6.913019925186
  0
SOLID
  8
図面枠
  6
CONTINUOUS
 62
     7
 10
372.628389419334
 20
-8.421552819109
 11
372.628389419334
 21
-6.913019925186
 12
372.642796808657
 22
-8.434935415049
 13
372.642796808657
 23
-8.434935415049
  0
SOLID
  8
図面枠
  6
CONTINUOUS
 62
     7
 10
372.642796808657
 20
-8.434935415049
 11
372.628389419334
 21
-6.913019925186
 12
372.642796808657
 22
-6.900019507477
 13
372.642796808657
 23
-6.900019507477
  0
SOLID
  8
図面枠
  6
CONTINUOUS
 62
     7
 10
372.642796808657
 20
-8.434935415049
 11
372.642796808657
 21
-7.65082811479
 12
372.660876669768
 22
-8.451729260935
 13
372.660876669768
 23
-8.451729260935
  0
SOLID
  8
図面枠
  6
CONTINUOUS
 62
     7
 10
372.660876669768
 20
-8.451729260935
 11
372.642796808657
 21
-7.65082811479
 12
372.660876669768
 22
-7.91251649412
 13
372.660876669768
 23
-7.91251649412
  0
SOLID
  8
図面枠
  6
CONTINUOUS
 62
     7
 10
372.642796808657
 20
-7.65082811479
 11
372.642796808657
 21
-7.545880170997
 12
372.660876669768
 22
-7.65082811479
 13
372.660876669768
 23
-7.65082811479
  0
SOLID
  8
図面枠
  6
CONTINUOUS
 62
     7
 10
372.660876669768
 20
-7.65082811479
 11
372.642796808657
 21
-7.545880170997
 12
372.660876669768
 22
-7.545880170997
 13
372.660876669768
 23
-7.545880170997
  0
SOLID
  8
図面枠
  6
CONTINUOUS
 62
     7
 10
372.642796808657
 20
-7.545880170997
 11
372.642796808657
 21
-6.900019507477
 12
372.660876669768
 22
-7.317975046757
 13
372.660876669768
 23
-7.317975046757
  0
SOLID
  8
図面枠
  6
CONTINUOUS
 62
     7
 10
372.660876669768
 20
-7.317975046757
 11
372.642796808657
 21
-6.900019507477
 12
372.660876669768
 22
-6.883705257803
 13
372.660876669768
 23
-6.883705257803
  0
SOLID
  8
図面枠
  6
CONTINUOUS
 62
     7
 10
372.660876669768
 20
-8.451729260935
 11
372.660876669768
 21
-7.91251649412
 12
372.664549141556
 22
-8.45514051088
 13
372.664549141556
 23
-8.45514051088
  0
SOLID
  8
図面枠
  6
CONTINUOUS
 62
     7
 10
372.664549141556
 20
-8.45514051088
 11
372.660876669768
 21
-7.91251649412
 12
372.664549141556
 22
-7.965671946171
 13
372.664549141556
 23
-7.965671946171
  0
SOLID
  8
図面枠
  6
CONTINUOUS
 62
     7
 10
372.660876669768
 20
-7.65082811479
 11
372.660876669768
 21
-7.545880170997
 12
372.664549141556
 22
-7.65082811479
 13
372.664549141556
 23
-7.65082811479
  0
SOLID
  8
図面枠
  6
CONTINUOUS
 62
     7
 10
372.664549141556
 20
-7.65082811479
 11
372.660876669768
 21
-7.545880170997
 12
372.664549141556
 22
-7.545880170997
 13
372.664549141556
 23
-7.545880170997
  0
SOLID
  8
図面枠
  6
CONTINUOUS
 62
     7
 10
372.660876669768
 20
-7.317975046757
 11
372.660876669768
 21
-6.883705257803
 12
372.664549141556
 22
-7.306606084372
 13
372.664549141556
 23
-7.306606084372
  0
SOLID
  8
図面枠
  6
CONTINUOUS
 62
     7
 10
372.664549141556
 20
-7.306606084372
 11
372.660876669768
 21
-6.883705257803
 12
372.664549141556
 22
-6.880966553699
 13
372.664549141556
 23
-6.880966553699
  0
SOLID
  8
図面枠
  6
CONTINUOUS
 62
     7
 10
372.664549141556
 20
-8.45514051088
 11
372.664549141556
 21
-7.965671946171
 12
372.729664891339
 22
-8.515624596453
 13
372.729664891339
 23
-8.515624596453
  0
SOLID
  8
図面枠
  6
CONTINUOUS
 62
     7
 10
372.729664891339
 20
-8.515624596453
 11
372.664549141556
 21
-7.965671946171
 12
372.729664891339
 22
-8.192170248656
 13
372.729664891339
 23
-8.192170248656
  0
SOLID
  8
図面枠
  6
CONTINUOUS
 62
     7
 10
372.664549141556
 20
-7.65082811479
 11
372.664549141556
 21
-7.545880170997
 12
372.729664891339
 22
-7.65082811479
 13
372.729664891339
 23
-7.65082811479
  0
SOLID
  8
図面枠
  6
CONTINUOUS
 62
     7
 10
372.729664891339
 20
-7.65082811479
 11
372.664549141556
 21
-7.545880170997
 12
372.729664891339
 22
-7.545880170997
 13
372.729664891339
 23
-7.545880170997
  0
SOLID
  8
図面枠
  6
CONTINUOUS
 62
     7
 10
372.664549141556
 20
-7.306606084372
 11
372.664549141556
 21
-6.880966553699
 12
372.729664891339
 22
-7.105025635926
 13
372.729664891339
 23
-7.105025635926
  0
SOLID
  8
図面枠
  6
CONTINUOUS
 62
     7
 10
372.729664891339
 20
-7.105025635926
 11
372.664549141556
 21
-6.880966553699
 12
372.729664891339
 22
-6.83240722325
 13
372.729664891339
 23
-6.83240722325
  0
SOLID
  8
図面枠
  6
CONTINUOUS
 62
     7
 10
372.729664891339
 20
-8.515624596453
 11
372.729664891339
 21
-8.192170248656
 12
372.733196114212
 22
-8.515596889935
 13
372.733196114212
 23
-8.515596889935
  0
SOLID
  8
図面枠
  6
CONTINUOUS
 62
     7
 10
372.733196114212
 20
-8.515596889935
 11
372.729664891339
 21
-8.192170248656
 12
372.733196114212
 22
-8.204453236861
 13
372.733196114212
 23
-8.204453236861
  0
SOLID
  8
図面枠
  6
CONTINUOUS
 62
     7
 10
372.729664891339
 20
-7.65082811479
 11
372.729664891339
 21
-7.545880170997
 12
372.733196114212
 22
-7.65082811479
 13
372.733196114212
 23
-7.65082811479
  0
SOLID
  8
図面枠
  6
CONTINUOUS
 62
     7
 10
372.733196114212
 20
-7.65082811479
 11
372.729664891339
 21
-7.545880170997
 12
372.733196114212
 22
-7.545880170997
 13
372.733196114212
 23
-7.545880170997
  0
SOLID
  8
図面枠
  6
CONTINUOUS
 62
     7
 10
372.729664891339
 20
-7.105025635926
 11
372.729664891339
 21
-6.83240722325
 12
372.733196114212
 22
-7.094093941325
 13
372.733196114212
 23
-7.094093941325
  0
SOLID
  8
図面枠
  6
CONTINUOUS
 62
     7
 10
372.733196114212
 20
-7.094093941325
 11
372.729664891339
 21
-6.83240722325
 12
372.733196114212
 22
-6.82977385392
 13
372.733196114212
 23
-6.82977385392
  0
SOLID
  8
図面枠
  6
CONTINUOUS
 62
     7
 10
372.733196114212
 20
-8.515596889935
 11
372.733196114212
 21
-8.204453236861
 12
372.736868586001
 22
-8.515568075156
 13
372.736868586001
 23
-8.515568075156
  0
SOLID
  8
図面枠
  6
CONTINUOUS
 62
     7
 10
372.736868586001
 20
-8.515568075156
 11
372.733196114212
 21
-8.204453236861
 12
372.736868586001
 22
-8.209665926666
 13
372.736868586001
 23
-8.209665926666
  0
SOLID
  8
図面枠
  6
CONTINUOUS
 62
     7
 10
372.733196114212
 20
-7.65082811479
 11
372.733196114212
 21
-7.545880170997
 12
372.736868586001
 22
-7.65082811479
 13
372.736868586001
 23
-7.65082811479
  0
SOLID
  8
図面枠
  6
CONTINUOUS
 62
     7
 10
372.736868586001
 20
-7.65082811479
 11
372.733196114212
 21
-7.545880170997
 12
372.736868586001
 22
-7.545880170997
 13
372.736868586001
 23
-7.545880170997
  0
SOLID
  8
図面枠
  6
CONTINUOUS
 62
     7
 10
372.733196114212
 20
-7.094093941325
 11
372.733196114212
 21
-6.82977385392
 12
372.736868586001
 22
-7.08272497894
 13
372.736868586001
 23
-7.08272497894
  0
SOLID
  8
図面枠
  6
CONTINUOUS
 62
     7
 10
372.736868586001
 20
-7.08272497894
 11
372.733196114212
 21
-6.82977385392
 12
372.736868586001
 22
-6.827035149817
 13
372.736868586001
 23
-6.827035149817
  0
SOLID
  8
図面枠
  6
CONTINUOUS
 62
     7
 10
372.736868586001
 20
-8.515568075156
 11
372.736868586001
 21
-8.209665926666
 12
372.845347752667
 22
-8.514716930925
 13
372.845347752667
 23
-8.514716930925
  0
SOLID
  8
図面枠
  6
CONTINUOUS
 62
     7
 10
372.845347752667
 20
-8.514716930925
 11
372.736868586001
 21
-8.209665926666
 12
372.845347752667
 22
-8.363640763987
 13
372.845347752667
 23
-8.363640763987
  0
SOLID
  8
図面枠
  6
CONTINUOUS
 62
     7
 10
372.736868586001
 20
-7.65082811479
 11
372.736868586001
 21
-7.545880170997
 12
372.845347752667
 22
-7.65082811479
 13
372.845347752667
 23
-7.65082811479
  0
SOLID
  8
図面枠
  6
CONTINUOUS
 62
     7
 10
372.845347752667
 20
-7.65082811479
 11
372.736868586001
 21
-7.545880170997
 12
372.845347752667
 22
-7.545880170997
 13
372.845347752667
 23
-7.545880170997
  0
SOLID
  8
図面枠
  6
CONTINUOUS
 62
     7
 10
372.736868586001
 20
-7.08272497894
 11
372.736868586001
 21
-6.827035149817
 12
372.845347752667
 22
-6.931902424199
 13
372.845347752667
 23
-6.931902424199
  0
SOLID
  8
図面枠
  6
CONTINUOUS
 62
     7
 10
372.845347752667
 20
-6.931902424199
 11
372.736868586001
 21
-6.827035149817
 12
372.845347752667
 22
-6.746138043993
 13
372.845347752667
 23
-6.746138043993
  0
SOLID
  8
図面枠
  6
CONTINUOUS
 62
     7
 10
372.845347752667
 20
-8.514716930925
 11
372.845347752667
 21
-8.363640763987
 12
372.852551447329
 22
-8.514660409629
 13
372.852551447329
 23
-8.514660409629
  0
SOLID
  8
図面枠
  6
CONTINUOUS
 62
     7
 10
372.852551447329
 20
-8.514660409629
 11
372.845347752667
 21
-8.363640763987
 12
372.852551447329
 22
-8.367313235776
 13
372.852551447329
 23
-8.367313235776
  0
SOLID
  8
図面枠
  6
CONTINUOUS
 62
     7
 10
372.845347752667
 20
-7.65082811479
 11
372.845347752667
 21
-7.545880170997
 12
372.852551447329
 22
-7.65082811479
 13
372.852551447329
 23
-7.65082811479
  0
SOLID
  8
図面枠
  6
CONTINUOUS
 62
     7
 10
372.852551447329
 20
-7.65082811479
 11
372.845347752667
 21
-7.545880170997
 12
372.852551447329
 22
-7.545880170997
 13
372.852551447329
 23
-7.545880170997
  0
SOLID
  8
図面枠
  6
CONTINUOUS
 62
     7
 10
372.845347752667
 20
-6.931902424199
 11
372.845347752667
 21
-6.746138043993
 12
372.852551447329
 22
-6.921886863923
 13
372.852551447329
 23
-6.921886863923
  0
SOLID
  8
図面枠
  6
CONTINUOUS
 62
     7
 10
372.852551447329
 20
-6.921886863923
 11
372.845347752667
 21
-6.746138043993
 12
372.852551447329
 22
-6.740765970559
 13
372.852551447329
 23
-6.740765970559
  0
SOLID
  8
図面枠
  6
CONTINUOUS
 62
     7
 10
372.852551447329
 20
-8.514660409629
 11
372.852551447329
 21
-8.367313235776
 12
372.85975514199
 22
-8.514603888332
 13
372.85975514199
 23
-8.514603888332
  0
SOLID
  8
図面枠
  6
CONTINUOUS
 62
     7
 10
372.85975514199
 20
-8.514603888332
 11
372.852551447329
 21
-8.367313235776
 12
372.85975514199
 22
-8.371541280284
 13
372.85975514199
 23
-8.371541280284
  0
SOLID
  8
図面枠
  6
CONTINUOUS
 62
     7
 10
372.852551447329
 20
-7.65082811479
 11
372.852551447329
 21
-7.545880170997
 12
372.85975514199
 22
-7.65082811479
 13
372.85975514199
 23
-7.65082811479
  0
SOLID
  8
図面枠
  6
CONTINUOUS
 62
     7
 10
372.85975514199
 20
-7.65082811479
 11
372.852551447329
 21
-7.545880170997
 12
372.85975514199
 22
-7.545880170997
 13
372.85975514199
 23
-7.545880170997
  0
SOLID
  8
図面枠
  6
CONTINUOUS
 62
     7
 10
372.852551447329
 20
-6.921886863923
 11
372.852551447329
 21
-6.740765970559
 12
372.85975514199
 22
-6.911871303647
 13
372.85975514199
 23
-6.911871303647
  0
SOLID
  8
図面枠
  6
CONTINUOUS
 62
     7
 10
372.85975514199
 20
-6.911871303647
 11
372.852551447329
 21
-6.740765970559
 12
372.85975514199
 22
-6.735393897126
 13
372.85975514199
 23
-6.735393897126
  0
SOLID
  8
図面枠
  6
CONTINUOUS
 62
     7
 10
372.85975514199
 20
-8.514603888332
 11
372.85975514199
 21
-8.371541280284
 12
372.866958836652
 22
-8.514547367036
 13
372.866958836652
 23
-8.514547367036
  0
SOLID
  8
図面枠
  6
CONTINUOUS
 62
     7
 10
372.866958836652
 20
-8.514547367036
 11
372.85975514199
 21
-8.371541280284
 12
372.866958836652
 22
-8.375769324792
 13
372.866958836652
 23
-8.375769324792
  0
SOLID
  8
図面枠
  6
CONTINUOUS
 62
     7
 10
372.85975514199
 20
-7.65082811479
 11
372.85975514199
 21
-7.545880170997
 12
372.866958836652
 22
-7.65082811479
 13
372.866958836652
 23
-7.65082811479
  0
SOLID
  8
図面枠
  6
CONTINUOUS
 62
     7
 10
372.866958836652
 20
-7.65082811479
 11
372.85975514199
 21
-7.545880170997
 12
372.866958836652
 22
-7.545880170997
 13
372.866958836652
 23
-7.545880170997
  0
SOLID
  8
図面枠
  6
CONTINUOUS
 62
     7
 10
372.85975514199
 20
-6.911871303647
 11
372.85975514199
 21
-6.735393897126
 12
372.866958836652
 22
-6.901855743371
 13
372.866958836652
 23
-6.901855743371
  0
SOLID
  8
図面枠
  6
CONTINUOUS
 62
     7
 10
372.866958836652
 20
-6.901855743371
 11
372.85975514199
 21
-6.735393897126
 12
372.866958836652
 22
-6.735868679062
 13
372.866958836652
 23
-6.735868679062
  0
SOLID
  8
図面枠
  6
CONTINUOUS
 62
     7
 10
372.866958836652
 20
-8.514547367036
 11
372.866958836652
 21
-8.375769324792
 12
372.979110475107
 22
-8.513667408026
 13
372.979110475107
 23
-8.513667408026
  0
SOLID
  8
図面枠
  6
CONTINUOUS
 62
     7
 10
372.979110475107
 20
-8.513667408026
 11
372.866958836652
 21
-8.375769324792
 12
372.979110475107
 22
-8.441594174586
 13
372.979110475107
 23
-8.441594174586
  0
SOLID
  8
図面枠
  6
CONTINUOUS
 62
     7
 10
372.866958836652
 20
-7.65082811479
 11
372.866958836652
 21
-7.545880170997
 12
372.979110475107
 22
-7.65082811479
 13
372.979110475107
 23
-7.65082811479
  0
SOLID
  8
図面枠
  6
CONTINUOUS
 62
     7
 10
372.979110475107
 20
-7.65082811479
 11
372.866958836652
 21
-7.545880170997
 12
372.979110475107
 22
-7.545880170997
 13
372.979110475107
 23
-7.545880170997
  0
SOLID
  8
図面枠
  6
CONTINUOUS
 62
     7
 10
372.866958836652
 20
-6.901855743371
 11
372.866958836652
 21
-6.735868679062
 12
372.979110475107
 22
-6.81858950802
 13
372.979110475107
 23
-6.81858950802
  0
SOLID
  8
図面枠
  6
CONTINUOUS
 62
     7
 10
372.979110475107
 20
-6.81858950802
 11
372.866958836652
 21
-6.735868679062
 12
372.979110475107
 22
-6.743260382155
 13
372.979110475107
 23
-6.743260382155
  0
SOLID
  8
図面枠
  6
CONTINUOUS
 62
     7
 10
372.979110475107
 20
-8.513667408026
 11
372.979110475107
 21
-8.441594174586
 12
373.062164837086
 22
-8.513015750725
 13
373.062164837086
 23
-8.513015750725
  0
SOLID
  8
図面枠
  6
CONTINUOUS
 62
     7
 10
373.062164837086
 20
-8.513015750725
 11
372.979110475107
 21
-8.441594174586
 12
373.062164837086
 22
-8.49034104068
 13
373.062164837086
 23
-8.49034104068
  0
SOLID
  8
図面枠
  6
CONTINUOUS
 62
     7
 10
372.979110475107
 20
-7.65082811479
 11
372.979110475107
 21
-7.545880170997
 12
373.062164837086
 22
-7.65082811479
 13
373.062164837086
 23
-7.65082811479
  0
SOLID
  8
図面枠
  6
CONTINUOUS
 62
     7
 10
373.062164837086
 20
-7.65082811479
 11
372.979110475107
 21
-7.545880170997
 12
373.062164837086
 22
-7.545880170997
 13
373.062164837086
 23
-7.545880170997
  0
SOLID
  8
図面枠
  6
CONTINUOUS
 62
     7
 10
372.979110475107
 20
-6.81858950802
 11
372.979110475107
 21
-6.743260382155
 12
373.062164837086
 22
-6.794216074972
 13
373.062164837086
 23
-6.794216074972
  0
SOLID
  8
図面枠
  6
CONTINUOUS
 62
     7
 10
373.062164837086
 20
-6.794216074972
 11
372.979110475107
 21
-6.743260382155
 12
373.062164837086
 22
-6.748734338601
 13
373.062164837086
 23
-6.748734338601
  0
SOLID
  8
図面枠
  6
CONTINUOUS
 62
     7
 10
373.062164837086
 20
-8.513015750725
 11
373.062164837086
 21
-8.49034104068
 12
373.188723864863
 22
-8.512022749122
 13
373.188723864863
 23
-8.512022749122
  0
SOLID
  8
図面枠
  6
CONTINUOUS
 62
     7
 10
373.062164837086
 20
-7.65082811479
 11
373.062164837086
 21
-7.545880170997
 12
373.188723864863
 22
-7.65082811479
 13
373.188723864863
 23
-7.65082811479
  0
SOLID
  8
図面枠
  6
CONTINUOUS
 62
     7
 10
373.188723864863
 20
-7.65082811479
 11
373.062164837086
 21
-7.545880170997
 12
373.188723864863
 22
-7.545880170997
 13
373.188723864863
 23
-7.545880170997
  0
SOLID
  8
図面枠
  6
CONTINUOUS
 62
     7
 10
373.062164837086
 20
-6.794216074972
 11
373.062164837086
 21
-6.748734338601
 12
373.188723864863
 22
-6.757075605567
 13
373.188723864863
 23
-6.757075605567
  0
SOLID
  8
図面枠
  6
CONTINUOUS
 62
     7
 10
373.188723864863
 20
-7.65082811479
 11
373.188723864863
 21
-7.545880170997
 12
373.940591839039
 22
-7.65082811479
 13
373.940591839039
 23
-7.65082811479
  0
SOLID
  8
図面枠
  6
CONTINUOUS
 62
     7
 10
373.940591839039
 20
-7.65082811479
 11
373.188723864863
 21
-7.545880170997
 12
373.940591839039
 22
-7.545880170997
 13
373.940591839039
 23
-7.545880170997
  0
SOLID
  8
図面枠
  6
CONTINUOUS
 62
     7
 10
373.940591839039
 20
-7.65082811479
 11
373.940591839039
 21
-7.545880170997
 12
373.944264310827
 22
-7.65082811479
 13
373.944264310827
 23
-7.65082811479
  0
ENDBLK
  8
0
  0
BLOCK
  8
0
  2
*U12
 70
     1
 10
0.0
 20
0.0
  0
SOLID
  8
図面枠
  6
CONTINUOUS
 62
     7
 10
371.084821276973
 20
-8.653130415138
 11
370.987218276756
 21
-8.653130415138
 12
371.084821276973
 22
-8.076128063287
 13
371.084821276973
 23
-8.076128063287
  0
SOLID
  8
図面枠
  6
CONTINUOUS
 62
     7
 10
371.084821276973
 20
-8.653130415138
 11
371.084821276973
 21
-8.076128063287
 12
371.099228666296
 22
-8.594020837281
 13
371.099228666296
 23
-8.594020837281
  0
SOLID
  8
図面枠
  6
CONTINUOUS
 62
     7
 10
371.099228666296
 20
-8.594020837281
 11
371.084821276973
 21
-8.076128063287
 12
371.099228666296
 22
-7.990955501943
 13
371.099228666296
 23
-7.990955501943
  0
SOLID
  8
図面枠
  6
CONTINUOUS
 62
     7
 10
371.099228666296
 20
-8.594020837281
 11
371.099228666296
 21
-7.990955501943
 12
371.131857165645
 22
-8.460155028606
 13
371.131857165645
 23
-8.460155028606
  0
SOLID
  8
図面枠
  6
CONTINUOUS
 62
     7
 10
371.131857165645
 20
-8.460155028606
 11
371.099228666296
 21
-7.990955501943
 12
371.131857165645
 22
-7.990955501943
 13
371.131857165645
 23
-7.990955501943
  0
SOLID
  8
図面枠
  6
CONTINUOUS
 62
     7
 10
371.131857165645
 20
-8.460155028606
 11
371.131857165645
 21
-7.990955501943
 12
371.439073555619
 22
-7.199730206666
 13
371.439073555619
 23
-7.199730206666
  0
SOLID
  8
図面枠
  6
CONTINUOUS
 62
     7
 10
371.439073555619
 20
-7.199730206666
 11
371.131857165645
 21
-7.990955501943
 12
371.439073555619
 22
-6.698792076922
 13
371.439073555619
 23
-6.698792076922
  0
SOLID
  8
図面枠
  6
CONTINUOUS
 62
     7
 10
371.439073555619
 20
-7.199730206666
 11
371.439073555619
 21
-6.698792076922
 12
371.486109444291
 22
-7.006754820134
 13
371.486109444291
 23
-7.006754820134
  0
SOLID
  8
図面枠
  6
CONTINUOUS
 62
     7
 10
371.486109444291
 20
-7.006754820134
 11
371.439073555619
 21
-6.698792076922
 12
371.486109444291
 22
-6.500957400815
 13
371.486109444291
 23
-6.500957400815
  0
SOLID
  8
図面枠
  6
CONTINUOUS
 62
     7
 10
371.439073555619
 20
-5.704135569218
 11
371.439073555619
 21
-5.595585778093
 12
371.486109444291
 22
-5.704135569218
 13
371.486109444291
 23
-5.704135569218
  0
SOLID
  8
図面枠
  6
CONTINUOUS
 62
     7
 10
371.486109444291
 20
-5.704135569218
 11
371.439073555619
 21
-5.595585778093
 12
371.486109444291
 22
-5.595585778093
 13
371.486109444291
 23
-5.595585778093
  0
SOLID
  8
図面枠
  6
CONTINUOUS
 62
     7
 10
371.486109444291
 20
-7.006754820134
 11
371.486109444291
 21
-6.500957400815
 12
371.580039972719
 22
-6.621383552737
 13
371.580039972719
 23
-6.621383552737
  0
SOLID
  8
図面枠
  6
CONTINUOUS
 62
     7
 10
371.580039972719
 20
-6.621383552737
 11
371.486109444291
 21
-6.500957400815
 12
371.580039972719
 22
-6.105882146728
 13
371.580039972719
 23
-6.105882146728
  0
SOLID
  8
図面枠
  6
CONTINUOUS
 62
     7
 10
371.486109444291
 20
-5.704135569218
 11
371.486109444291
 21
-5.595585778093
 12
371.580039972719
 22
-5.729489749448
 13
371.580039972719
 23
-5.729489749448
  0
SOLID
  8
図面枠
  6
CONTINUOUS
 62
     7
 10
371.580039972719
 20
-5.729489749448
 11
371.486109444291
 21
-5.595585778093
 12
371.580039972719
 22
-5.595585778093
 13
371.580039972719
 23
-5.595585778093
  0
SOLID
  8
図面枠
  6
CONTINUOUS
 62
     7
 10
371.580039972719
 20
-6.621383552737
 11
371.580039972719
 21
-6.105882146728
 12
371.616199694942
 22
-6.47303010243
 13
371.616199694942
 23
-6.47303010243
  0
SOLID
  8
図面枠
  6
CONTINUOUS
 62
     7
 10
371.616199694942
 20
-6.47303010243
 11
371.580039972719
 21
-6.105882146728
 12
371.616199694942
 22
-5.953793026357
 13
371.616199694942
 23
-5.953793026357
  0
SOLID
  8
図面枠
  6
CONTINUOUS
 62
     7
 10
371.580039972719
 20
-5.729489749448
 11
371.580039972719
 21
-5.595585778093
 12
371.616199694942
 22
-5.953793026357
 13
371.616199694942
 23
-5.953793026357
  0
SOLID
  8
図面枠
  6
CONTINUOUS
 62
     7
 10
371.616199694942
 20
-5.953793026357
 11
371.580039972719
 21
-5.595585778093
 12
371.616199694942
 22
-5.595585778093
 13
371.616199694942
 23
-5.595585778093
  0
SOLID
  8
図面枠
  6
CONTINUOUS
 62
     7
 10
371.616199694942
 20
-6.47303010243
 11
371.616199694942
 21
-5.595585778093
 12
371.742758722719
 22
-5.953793026357
 13
371.742758722719
 23
-5.953793026357
  0
SOLID
  8
図面枠
  6
CONTINUOUS
 62
     7
 10
371.742758722719
 20
-5.953793026357
 11
371.616199694942
 21
-5.595585778093
 12
371.742758722719
 22
-5.595585778093
 13
371.742758722719
 23
-5.595585778093
  0
SOLID
  8
図面枠
  6
CONTINUOUS
 62
     7
 10
371.742758722719
 20
-5.953793026357
 11
371.742758722719
 21
-5.595585778093
 12
371.800529528926
 22
-5.819959679461
 13
371.800529528926
 23
-5.819959679461
  0
SOLID
  8
図面枠
  6
CONTINUOUS
 62
     7
 10
371.800529528926
 20
-5.819959679461
 11
371.742758722719
 21
-5.595585778093
 12
371.800529528926
 22
-5.595585778093
 13
371.800529528926
 23
-5.595585778093
  0
SOLID
  8
図面枠
  6
CONTINUOUS
 62
     7
 10
371.800529528926
 20
-5.819959679461
 11
371.800529528926
 21
-5.595585778093
 12
371.952372112476
 22
-5.704135569218
 13
371.952372112476
 23
-5.704135569218
  0
SOLID
  8
図面枠
  6
CONTINUOUS
 62
     7
 10
371.952372112476
 20
-5.704135569218
 11
371.800529528926
 21
-5.595585778093
 12
371.952372112476
 22
-5.595585778093
 13
371.952372112476
 23
-5.595585778093
  0
SOLID
  8
図面枠
  6
CONTINUOUS
 62
     7
 10
371.952372112476
 20
-5.704135569218
 11
371.952372112476
 21
-5.595585778093
 12
372.017487862259
 22
-5.704135569218
 13
372.017487862259
 23
-5.704135569218
  0
SOLID
  8
図面枠
  6
CONTINUOUS
 62
     7
 10
372.017487862259
 20
-5.704135569218
 11
371.952372112476
 21
-5.595585778093
 12
372.017487862259
 22
-5.595585778093
 13
372.017487862259
 23
-5.595585778093
  0
ENDBLK
  8
0
  0
BLOCK
  8
0
  2
*U13
 70
     1
 10
0.0
 20
0.0
  0
SOLID
  8
図面枠
  6
CONTINUOUS
 62
     7
 10
370.170234552798
 20
-5.704135569218
 11
370.170234552798
 21
-5.595585778093
 12
370.217270441469
 22
-5.704135569218
 13
370.217270441469
 23
-5.704135569218
  0
SOLID
  8
図面枠
  6
CONTINUOUS
 62
     7
 10
370.217270441469
 20
-5.704135569218
 11
370.170234552798
 21
-5.595585778093
 12
370.217270441469
 22
-5.595585778093
 13
370.217270441469
 23
-5.595585778093
  0
SOLID
  8
図面枠
  6
CONTINUOUS
 62
     7
 10
370.217270441469
 20
-5.704135569218
 11
370.217270441469
 21
-5.595585778093
 12
370.296793580575
 22
-5.725817277659
 13
370.296793580575
 23
-5.725817277659
  0
SOLID
  8
図面枠
  6
CONTINUOUS
 62
     7
 10
370.296793580575
 20
-5.725817277659
 11
370.217270441469
 21
-5.595585778093
 12
370.296793580575
 22
-5.595585778093
 13
370.296793580575
 23
-5.595585778093
  0
SOLID
  8
図面枠
  6
CONTINUOUS
 62
     7
 10
370.296793580575
 20
-5.725817277659
 11
370.296793580575
 21
-5.595585778093
 12
370.394396580792
 22
-5.953793026357
 13
370.394396580792
 23
-5.953793026357
  0
SOLID
  8
図面枠
  6
CONTINUOUS
 62
     7
 10
370.394396580792
 20
-5.953793026357
 11
370.296793580575
 21
-5.595585778093
 12
370.394396580792
 22
-5.595585778093
 13
370.394396580792
 23
-5.595585778093
  0
SOLID
  8
図面枠
  6
CONTINUOUS
 62
     7
 10
370.394396580792
 20
-5.953793026357
 11
370.394396580792
 21
-5.595585778093
 12
370.63296599811
 22
-7.040088201399
 13
370.63296599811
 23
-7.040088201399
  0
SOLID
  8
図面枠
  6
CONTINUOUS
 62
     7
 10
370.63296599811
 20
-7.040088201399
 11
370.394396580792
 21
-5.595585778093
 12
370.63296599811
 22
-5.595585778093
 13
370.63296599811
 23
-5.595585778093
  0
SOLID
  8
図面枠
  6
CONTINUOUS
 62
     7
 10
370.63296599811
 20
-7.040088201399
 11
370.63296599811
 21
-5.816287207672
 12
370.651045859221
 22
-7.122412524907
 13
370.651045859221
 23
-7.122412524907
  0
SOLID
  8
図面枠
  6
CONTINUOUS
 62
     7
 10
370.651045859221
 20
-7.122412524907
 11
370.63296599811
 21
-5.816287207672
 12
370.651045859221
 22
-5.899553443024
 13
370.651045859221
 23
-5.899553443024
  0
SOLID
  8
図面枠
  6
CONTINUOUS
 62
     7
 10
370.63296599811
 20
-5.816287207672
 11
370.63296599811
 21
-5.595585778093
 12
370.651045859221
 22
-5.800700443587
 13
370.651045859221
 23
-5.800700443587
  0
SOLID
  8
図面枠
  6
CONTINUOUS
 62
     7
 10
370.651045859221
 20
-5.800700443587
 11
370.63296599811
 21
-5.595585778093
 12
370.651045859221
 22
-5.595585778093
 13
370.651045859221
 23
-5.595585778093
  0
SOLID
  8
図面枠
  6
CONTINUOUS
 62
     7
 10
370.651045859221
 20
-7.122412524907
 11
370.651045859221
 21
-5.899553443024
 12
370.763056248761
 22
-7.632437435391
 13
370.763056248761
 23
-7.632437435391
  0
SOLID
  8
図面枠
  6
CONTINUOUS
 62
     7
 10
370.763056248761
 20
-7.632437435391
 11
370.651045859221
 21
-5.899553443024
 12
370.763056248761
 22
-6.422239176627
 13
370.763056248761
 23
-6.422239176627
  0
SOLID
  8
図面枠
  6
CONTINUOUS
 62
     7
 10
370.651045859221
 20
-5.800700443587
 11
370.651045859221
 21
-5.595585778093
 12
370.763056248761
 22
-5.704135569218
 13
370.763056248761
 23
-5.704135569218
  0
SOLID
  8
図面枠
  6
CONTINUOUS
 62
     7
 10
370.763056248761
 20
-5.704135569218
 11
370.651045859221
 21
-5.595585778093
 12
370.763056248761
 22
-5.595585778093
 13
370.763056248761
 23
-5.595585778093
  0
SOLID
  8
図面枠
  6
CONTINUOUS
 62
     7
 10
370.763056248761
 20
-7.632437435391
 11
370.763056248761
 21
-6.422239176627
 12
370.828171998544
 22
-7.928933631777
 13
370.828171998544
 23
-7.928933631777
  0
SOLID
  8
図面枠
  6
CONTINUOUS
 62
     7
 10
370.828171998544
 20
-7.928933631777
 11
370.763056248761
 21
-6.422239176627
 12
370.828171998544
 22
-6.726095574094
 13
370.828171998544
 23
-6.726095574094
  0
SOLID
  8
図面枠
  6
CONTINUOUS
 62
     7
 10
370.763056248761
 20
-5.704135569218
 11
370.763056248761
 21
-5.595585778093
 12
370.828171998544
 22
-5.704135569218
 13
370.828171998544
 23
-5.704135569218
  0
SOLID
  8
図面枠
  6
CONTINUOUS
 62
     7
 10
370.828171998544
 20
-5.704135569218
 11
370.763056248761
 21
-5.595585778093
 12
370.828171998544
 22
-5.595585778093
 13
370.828171998544
 23
-5.595585778093
  0
SOLID
  8
図面枠
  6
CONTINUOUS
 62
     7
 10
370.828171998544
 20
-7.928933631777
 11
370.828171998544
 21
-6.726095574094
 12
370.987218276756
 22
-8.653130415138
 13
370.987218276756
 23
-8.653130415138
  0
SOLID
  8
図面枠
  6
CONTINUOUS
 62
     7
 10
370.987218276756
 20
-8.653130415138
 11
370.828171998544
 21
-6.726095574094
 12
370.987218276756
 22
-7.46826976834
 13
370.987218276756
 23
-7.46826976834
  0
SOLID
  8
図面枠
  6
CONTINUOUS
 62
     7
 10
370.987218276756
 20
-8.653130415138
 11
370.987218276756
 21
-7.46826976834
 12
371.099228666296
 22
-7.990955501943
 13
371.099228666296
 23
-7.990955501943
  0
ENDBLK
  8
0
  0
BLOCK
  8
0
  2
*U14
 70
     1
 10
0.0
 20
0.0
  0
SOLID
  8
図面枠
  6
CONTINUOUS
 62
     7
 10
381.163213855098
 20
-7.144238881392
 11
381.015043743336
 21
-7.140637034061
 12
381.163213855098
 22
-7.131374140628
 13
381.163213855098
 23
-7.131374140628
  0
SOLID
  8
図面枠
  6
CONTINUOUS
 62
     7
 10
381.163213855098
 20
-7.144238881392
 11
381.163213855098
 21
-7.131374140628
 12
381.318728910436
 22
-7.14791135318
 13
381.318728910436
 23
-7.14791135318
  0
SOLID
  8
図面枠
  6
CONTINUOUS
 62
     7
 10
381.318728910436
 20
-7.14791135318
 11
381.163213855098
 21
-7.131374140628
 12
381.318728910436
 22
-7.121652076118
 13
381.318728910436
 23
-7.121652076118
  0
SOLID
  8
図面枠
  6
CONTINUOUS
 62
     7
 10
381.318728910436
 20
-7.14791135318
 11
381.318728910436
 21
-7.121652076118
 12
381.398252049542
 22
-7.151513200511
 13
381.398252049542
 23
-7.151513200511
  0
SOLID
  8
図面枠
  6
CONTINUOUS
 62
     7
 10
381.398252049542
 20
-7.151513200511
 11
381.318728910436
 21
-7.121652076118
 12
381.398252049542
 22
-7.116680666201
 13
381.398252049542
 23
-7.116680666201
  0
SOLID
  8
図面枠
  6
CONTINUOUS
 62
     7
 10
381.398252049542
 20
-7.151513200511
 11
381.398252049542
 21
-7.116680666201
 12
381.539218466643
 22
-7.180469228072
 13
381.539218466643
 23
-7.180469228072
  0
SOLID
  8
図面枠
  6
CONTINUOUS
 62
     7
 10
381.539218466643
 20
-7.180469228072
 11
381.398252049542
 21
-7.116680666201
 12
381.539218466643
 22
-7.10786811363
 13
381.539218466643
 23
-7.10786811363
  0
SOLID
  8
図面枠
  6
CONTINUOUS
 62
     7
 10
381.539218466643
 20
-7.180469228072
 11
381.539218466643
 21
-7.10786811363
 12
381.593458049976
 22
-7.104477311839
 13
381.593458049976
 23
-7.104477311839
  0
ENDBLK
  8
0
  0
BLOCK
  8
0
  2
*U15
 70
     1
 10
0.0
 20
0.0
  0
SOLID
  8
図面枠
  6
CONTINUOUS
 62
     7
 10
379.775160768075
 20
-7.209425255632
 11
379.68476146252
 21
-7.021211076487
 12
379.775160768075
 22
-7.018522817255
 13
379.775160768075
 23
-7.018522817255
  0
SOLID
  8
図面枠
  6
CONTINUOUS
 62
     7
 10
379.775160768075
 20
-7.209425255632
 11
379.775160768075
 21
-7.018522817255
 12
379.83660404607
 22
-7.299824561188
 13
379.83660404607
 23
-7.299824561188
  0
SOLID
  8
図面枠
  6
CONTINUOUS
 62
     7
 10
379.83660404607
 20
-7.299824561188
 11
379.775160768075
 21
-7.018522817255
 12
379.83660404607
 22
-7.016695641058
 13
379.83660404607
 23
-7.016695641058
  0
SOLID
  8
図面枠
  6
CONTINUOUS
 62
     7
 10
379.83660404607
 20
-7.299824561188
 11
379.83660404607
 21
-7.016695641058
 12
379.898047324065
 22
-7.238310658736
 13
379.898047324065
 23
-7.238310658736
  0
SOLID
  8
図面枠
  6
CONTINUOUS
 62
     7
 10
379.898047324065
 20
-7.238310658736
 11
379.83660404607
 21
-7.016695641058
 12
379.898047324065
 22
-7.014868464861
 13
379.898047324065
 23
-7.014868464861
  0
SOLID
  8
図面枠
  6
CONTINUOUS
 62
     7
 10
379.898047324065
 20
-7.238310658736
 11
379.898047324065
 21
-7.014868464861
 12
379.912454713388
 22
-7.227505116744
 13
379.912454713388
 23
-7.227505116744
  0
SOLID
  8
図面枠
  6
CONTINUOUS
 62
     7
 10
379.912454713388
 20
-7.227505116744
 11
379.898047324065
 21
-7.014868464861
 12
379.912454713388
 22
-7.014440023546
 13
379.912454713388
 23
-7.014440023546
  0
SOLID
  8
図面枠
  6
CONTINUOUS
 62
     7
 10
379.912454713388
 20
-7.227505116744
 11
379.912454713388
 21
-7.014440023546
 12
379.927003351626
 22
-7.22465837556
 13
379.927003351626
 23
-7.22465837556
  0
SOLID
  8
図面枠
  6
CONTINUOUS
 62
     7
 10
379.927003351626
 20
-7.22465837556
 11
379.912454713388
 21
-7.014440023546
 12
379.927003351626
 22
-7.014007381826
 13
379.927003351626
 23
-7.014007381826
  0
SOLID
  8
図面枠
  6
CONTINUOUS
 62
     7
 10
379.927003351626
 20
-7.22465837556
 11
379.927003351626
 21
-7.014007381826
 12
380.039013741166
 22
-7.202741232276
 13
380.039013741166
 23
-7.202741232276
  0
SOLID
  8
図面枠
  6
CONTINUOUS
 62
     7
 10
380.039013741166
 20
-7.202741232276
 11
379.927003351626
 21
-7.014007381826
 12
380.039013741166
 22
-7.014007381826
 13
380.039013741166
 23
-7.014007381826
  0
SOLID
  8
図面枠
  6
CONTINUOUS
 62
     7
 10
380.039013741166
 20
-7.202741232276
 11
380.039013741166
 21
-7.014007381826
 12
380.078845935176
 22
-7.194947241852
 13
380.078845935176
 23
-7.194947241852
  0
SOLID
  8
図面枠
  6
CONTINUOUS
 62
     7
 10
380.078845935176
 20
-7.194947241852
 11
380.039013741166
 21
-7.014007381826
 12
380.078845935176
 22
-7.014007381826
 13
380.078845935176
 23
-7.014007381826
  0
SOLID
  8
図面枠
  6
CONTINUOUS
 62
     7
 10
380.078845935176
 20
-7.194947241852
 11
380.078845935176
 21
-7.014007381826
 12
380.165572768943
 22
-7.186793436968
 13
380.165572768943
 23
-7.186793436968
  0
SOLID
  8
図面枠
  6
CONTINUOUS
 62
     7
 10
380.165572768943
 20
-7.186793436968
 11
380.078845935176
 21
-7.014007381826
 12
380.165572768943
 22
-7.014007381826
 13
380.165572768943
 23
-7.014007381826
  0
SOLID
  8
図面枠
  6
CONTINUOUS
 62
     7
 10
380.165572768943
 20
-7.186793436968
 11
380.165572768943
 21
-7.014007381826
 12
380.194528796504
 22
-7.184071075402
 13
380.194528796504
 23
-7.184071075402
  0
SOLID
  8
図面枠
  6
CONTINUOUS
 62
     7
 10
380.194528796504
 20
-7.184071075402
 11
380.165572768943
 21
-7.014007381826
 12
380.194528796504
 22
-7.013267523406
 13
380.194528796504
 23
-7.013267523406
  0
SOLID
  8
図面枠
  6
CONTINUOUS
 62
     7
 10
380.194528796504
 20
-7.184071075402
 11
380.194528796504
 21
-7.013267523406
 12
380.306539186044
 22
-7.172848138034
 13
380.306539186044
 23
-7.172848138034
  0
SOLID
  8
図面枠
  6
CONTINUOUS
 62
     7
 10
380.306539186044
 20
-7.172848138034
 11
380.194528796504
 21
-7.013267523406
 12
380.306539186044
 22
-7.010405534495
 13
380.306539186044
 23
-7.010405534495
  0
SOLID
  8
図面枠
  6
CONTINUOUS
 62
     7
 10
380.306539186044
 20
-7.172848138034
 11
380.306539186044
 21
-7.010405534495
 12
380.339026436478
 22
-7.169593061622
 13
380.339026436478
 23
-7.169593061622
  0
SOLID
  8
図面枠
  6
CONTINUOUS
 62
     7
 10
380.339026436478
 20
-7.169593061622
 11
380.306539186044
 21
-7.010405534495
 12
380.339026436478
 22
-7.00963835147
 13
380.339026436478
 23
-7.00963835147
  0
SOLID
  8
図面枠
  6
CONTINUOUS
 62
     7
 10
380.339026436478
 20
-7.169593061622
 11
380.339026436478
 21
-7.00963835147
 12
380.462054241383
 22
-7.159857048284
 13
380.462054241383
 23
-7.159857048284
  0
SOLID
  8
図面枠
  6
CONTINUOUS
 62
     7
 10
380.462054241383
 20
-7.159857048284
 11
380.339026436478
 21
-7.00963835147
 12
380.462054241383
 22
-7.006733062707
 13
380.462054241383
 23
-7.006733062707
  0
SOLID
  8
図面枠
  6
CONTINUOUS
 62
     7
 10
380.462054241383
 20
-7.159857048284
 11
380.462054241383
 21
-7.006733062707
 12
380.476461630706
 22
-7.158716895172
 13
380.476461630706
 23
-7.158716895172
  0
SOLID
  8
図面枠
  6
CONTINUOUS
 62
     7
 10
380.476461630706
 20
-7.158716895172
 11
380.462054241383
 21
-7.006733062707
 12
380.476461630706
 22
-7.006121767486
 13
380.476461630706
 23
-7.006121767486
  0
SOLID
  8
図面枠
  6
CONTINUOUS
 62
     7
 10
380.476461630706
 20
-7.158716895172
 11
380.476461630706
 21
-7.006121767486
 12
380.613755576018
 22
-7.14791135318
 13
380.613755576018
 23
-7.14791135318
  0
SOLID
  8
図面枠
  6
CONTINUOUS
 62
     7
 10
380.613755576018
 20
-7.14791135318
 11
380.476461630706
 21
-7.006121767486
 12
380.613755576018
 22
-7.000296483617
 13
380.613755576018
 23
-7.000296483617
  0
SOLID
  8
図面枠
  6
CONTINUOUS
 62
     7
 10
380.613755576018
 20
-7.14791135318
 11
380.613755576018
 21
-7.000296483617
 12
380.631835437129
 22
-7.147371655834
 13
380.631835437129
 23
-7.147371655834
  0
SOLID
  8
図面枠
  6
CONTINUOUS
 62
     7
 10
380.631835437129
 20
-7.147371655834
 11
380.613755576018
 21
-7.000296483617
 12
380.631835437129
 22
-6.999529368046
 13
380.631835437129
 23
-6.999529368046
  0
SOLID
  8
図面枠
  6
CONTINUOUS
 62
     7
 10
380.631835437129
 20
-7.147371655834
 11
380.631835437129
 21
-6.999529368046
 12
380.64991529824
 22
-7.146831958487
 13
380.64991529824
 23
-7.146831958487
  0
SOLID
  8
図面枠
  6
CONTINUOUS
 62
     7
 10
380.64991529824
 20
-7.146831958487
 11
380.631835437129
 21
-6.999529368046
 12
380.64991529824
 22
-6.999529368046
 13
380.64991529824
 23
-6.999529368046
  0
SOLID
  8
図面枠
  6
CONTINUOUS
 62
     7
 10
380.64991529824
 20
-7.146831958487
 11
380.64991529824
 21
-6.999529368046
 12
380.736783380923
 22
-7.144238881392
 13
380.736783380923
 23
-7.144238881392
  0
SOLID
  8
図面枠
  6
CONTINUOUS
 62
     7
 10
380.736783380923
 20
-7.144238881392
 11
380.64991529824
 21
-6.999529368046
 12
380.736783380923
 22
-6.996409628675
 13
380.736783380923
 23
-6.996409628675
  0
SOLID
  8
図面枠
  6
CONTINUOUS
 62
     7
 10
380.736783380923
 20
-7.144238881392
 11
380.736783380923
 21
-6.996409628675
 12
380.852466242251
 22
-7.141203991511
 13
380.852466242251
 23
-7.141203991511
  0
SOLID
  8
図面枠
  6
CONTINUOUS
 62
     7
 10
380.852466242251
 20
-7.141203991511
 11
380.736783380923
 21
-6.996409628675
 12
380.852466242251
 22
-6.992255048927
 13
380.852466242251
 23
-6.992255048927
  0
SOLID
  8
図面枠
  6
CONTINUOUS
 62
     7
 10
380.852466242251
 20
-7.141203991511
 11
380.852466242251
 21
-6.992255048927
 12
380.874077326235
 22
-7.140637034061
 13
380.874077326235
 23
-7.140637034061
  0
SOLID
  8
図面枠
  6
CONTINUOUS
 62
     7
 10
380.874077326235
 20
-7.140637034061
 11
380.852466242251
 21
-6.992255048927
 12
380.874077326235
 22
-6.991297477004
 13
380.874077326235
 23
-6.991297477004
  0
SOLID
  8
図面枠
  6
CONTINUOUS
 62
     7
 10
380.874077326235
 20
-7.140637034061
 11
380.874077326235
 21
-6.991297477004
 12
381.015043743336
 22
-7.140637034061
 13
381.015043743336
 23
-7.140637034061
  0
SOLID
  8
図面枠
  6
CONTINUOUS
 62
     7
 10
381.015043743336
 20
-7.140637034061
 11
380.874077326235
 21
-6.991297477004
 12
381.015043743336
 22
-6.985051354265
 13
381.015043743336
 23
-6.985051354265
  0
SOLID
  8
図面枠
  6
CONTINUOUS
 62
     7
 10
381.015043743336
 20
-7.140637034061
 11
381.015043743336
 21
-6.985051354265
 12
381.137930299325
 22
-7.132954748754
 13
381.137930299325
 23
-7.132954748754
  0
SOLID
  8
図面枠
  6
CONTINUOUS
 62
     7
 10
381.137930299325
 20
-7.132954748754
 11
381.015043743336
 21
-6.985051354265
 12
381.137930299325
 22
-6.977847659604
 13
381.137930299325
 23
-6.977847659604
  0
SOLID
  8
図面枠
  6
CONTINUOUS
 62
     7
 10
381.137930299325
 20
-7.132954748754
 11
381.137930299325
 21
-6.977847659604
 12
381.221125910219
 22
-7.127753753299
 13
381.221125910219
 23
-7.127753753299
  0
SOLID
  8
図面枠
  6
CONTINUOUS
 62
     7
 10
381.221125910219
 20
-7.127753753299
 11
381.137930299325
 21
-6.977847659604
 12
381.221125910219
 22
-6.970573340485
 13
381.221125910219
 23
-6.970573340485
  0
SOLID
  8
図面枠
  6
CONTINUOUS
 62
     7
 10
381.221125910219
 20
-7.127753753299
 11
381.221125910219
 21
-6.970573340485
 12
381.336808771548
 22
-7.120521808854
 13
381.336808771548
 23
-7.120521808854
  0
SOLID
  8
図面枠
  6
CONTINUOUS
 62
     7
 10
381.336808771548
 20
-7.120521808854
 11
381.221125910219
 21
-6.970573340485
 12
381.336808771548
 22
-6.927139299144
 13
381.336808771548
 23
-6.927139299144
  0
SOLID
  8
図面枠
  6
CONTINUOUS
 62
     7
 10
381.336808771548
 20
-7.120521808854
 11
381.336808771548
 21
-6.927139299144
 12
381.387375883093
 22
-7.117360592601
 13
381.387375883093
 23
-7.117360592601
  0
SOLID
  8
図面枠
  6
CONTINUOUS
 62
     7
 10
381.387375883093
 20
-7.117360592601
 11
381.336808771548
 21
-6.927139299144
 12
381.387375883093
 22
-6.880103410472
 13
381.387375883093
 23
-6.880103410472
  0
SOLID
  8
図面枠
  6
CONTINUOUS
 62
     7
 10
381.387375883093
 20
-7.117360592601
 11
381.387375883093
 21
-6.880103410472
 12
381.51393491087
 22
-7.109448721756
 13
381.51393491087
 23
-7.109448721756
  0
SOLID
  8
図面枠
  6
CONTINUOUS
 62
     7
 10
381.51393491087
 20
-7.109448721756
 11
381.387375883093
 21
-6.880103410472
 12
381.51393491087
 22
-6.959697174035
 13
381.51393491087
 23
-6.959697174035
  0
SOLID
  8
図面枠
  6
CONTINUOUS
 62
     7
 10
381.51393491087
 20
-7.109448721756
 11
381.51393491087
 21
-6.959697174035
 12
381.532014771982
 22
-7.108318454493
 13
381.532014771982
 23
-7.108318454493
  0
SOLID
  8
図面枠
  6
CONTINUOUS
 62
     7
 10
381.532014771982
 20
-7.108318454493
 11
381.51393491087
 21
-6.959697174035
 12
381.532014771982
 22
-6.985051354265
 13
381.532014771982
 23
-6.985051354265
  0
SOLID
  8
図面枠
  6
CONTINUOUS
 62
     7
 10
381.532014771982
 20
-7.108318454493
 11
381.532014771982
 21
-6.985051354265
 12
381.593458049976
 22
-7.104477311839
 13
381.593458049976
 23
-7.104477311839
  0
ENDBLK
  8
0
  0
BLOCK
  8
0
  2
*U16
 70
     1
 10
0.0
 20
0.0
  0
SOLID
  8
図面枠
  6
CONTINUOUS
 62
     7
 10
377.356696846634
 20
-8.074221737295
 11
377.309802206877
 21
-8.027185848623
 12
377.356696846634
 22
-7.963555795182
 13
377.356696846634
 23
-7.963555795182
  0
SOLID
  8
図面枠
  6
CONTINUOUS
 62
     7
 10
377.356696846634
 20
-8.074221737295
 11
377.356696846634
 21
-7.963555795182
 12
377.410936429968
 22
-8.012707834843
 13
377.410936429968
 23
-8.012707834843
  0
SOLID
  8
図面枠
  6
CONTINUOUS
 62
     7
 10
377.410936429968
 20
-8.012707834843
 11
377.356696846634
 21
-7.963555795182
 12
377.410936429968
 22
-7.889959588793
 13
377.410936429968
 23
-7.889959588793
  0
SOLID
  8
図面枠
  6
CONTINUOUS
 62
     7
 10
377.410936429968
 20
-8.012707834843
 11
377.410936429968
 21
-7.889959588793
 12
377.421812596417
 22
-7.999643689595
 13
377.421812596417
 23
-7.999643689595
  0
SOLID
  8
図面枠
  6
CONTINUOUS
 62
     7
 10
377.421812596417
 20
-7.999643689595
 11
377.410936429968
 21
-7.889959588793
 12
377.421812596417
 22
-7.875202016158
 13
377.421812596417
 23
-7.875202016158
  0
SOLID
  8
図面枠
  6
CONTINUOUS
 62
     7
 10
377.421812596417
 20
-7.999643689595
 11
377.421812596417
 21
-7.875202016158
 12
377.519415596634
 22
-7.882405710819
 13
377.519415596634
 23
-7.882405710819
  0
SOLID
  8
図面枠
  6
CONTINUOUS
 62
     7
 10
377.519415596634
 20
-7.882405710819
 11
377.421812596417
 21
-7.875202016158
 12
377.519415596634
 22
-7.728670428592
 13
377.519415596634
 23
-7.728670428592
  0
SOLID
  8
図面枠
  6
CONTINUOUS
 62
     7
 10
377.519415596634
 20
-7.882405710819
 11
377.519415596634
 21
-7.728670428592
 12
377.530291763084
 22
-7.868258197429
 13
377.530291763084
 23
-7.868258197429
  0
SOLID
  8
図面枠
  6
CONTINUOUS
 62
     7
 10
377.530291763084
 20
-7.868258197429
 11
377.519415596634
 21
-7.728670428592
 12
377.530291763084
 22
-7.712342017243
 13
377.530291763084
 23
-7.712342017243
  0
SOLID
  8
図面枠
  6
CONTINUOUS
 62
     7
 10
377.530291763084
 20
-7.868258197429
 11
377.530291763084
 21
-7.712342017243
 12
377.627894763301
 22
-7.741298044803
 13
377.627894763301
 23
-7.741298044803
  0
SOLID
  8
図面枠
  6
CONTINUOUS
 62
     7
 10
377.627894763301
 20
-7.741298044803
 11
377.530291763084
 21
-7.712342017243
 12
377.627894763301
 22
-7.545880170997
 13
377.627894763301
 23
-7.545880170997
  0
SOLID
  8
図面枠
  6
CONTINUOUS
 62
     7
 10
377.627894763301
 20
-7.741298044803
 11
377.627894763301
 21
-7.545880170997
 12
377.72182529173
 22
-7.596794585216
 13
377.72182529173
 23
-7.596794585216
  0
SOLID
  8
図面枠
  6
CONTINUOUS
 62
     7
 10
377.72182529173
 20
-7.596794585216
 11
377.627894763301
 21
-7.545880170997
 12
377.72182529173
 22
-7.368612782759
 13
377.72182529173
 23
-7.368612782759
  0
SOLID
  8
図面枠
  6
CONTINUOUS
 62
     7
 10
377.72182529173
 20
-7.596794585216
 11
377.72182529173
 21
-7.368612782759
 12
377.729028986391
 22
-7.585712365007
 13
377.729028986391
 23
-7.585712365007
  0
SOLID
  8
図面枠
  6
CONTINUOUS
 62
     7
 10
377.729028986391
 20
-7.585712365007
 11
377.72182529173
 21
-7.368612782759
 12
377.729028986391
 22
-7.353583576145
 13
377.729028986391
 23
-7.353583576145
  0
SOLID
  8
図面枠
  6
CONTINUOUS
 62
     7
 10
377.729028986391
 20
-7.585712365007
 11
377.729028986391
 21
-7.353583576145
 12
377.808552125497
 22
-7.455003830229
 13
377.808552125497
 23
-7.455003830229
  0
SOLID
  8
図面枠
  6
CONTINUOUS
 62
     7
 10
377.808552125497
 20
-7.455003830229
 11
377.729028986391
 21
-7.353583576145
 12
377.808552125497
 22
-7.187672922733
 13
377.808552125497
 23
-7.187672922733
  0
SOLID
  8
図面枠
  6
CONTINUOUS
 62
     7
 10
377.808552125497
 20
-7.455003830229
 11
377.808552125497
 21
-7.187672922733
 12
377.830304458396
 22
-7.419250518762
 13
377.830304458396
 23
-7.419250518762
  0
SOLID
  8
図面枠
  6
CONTINUOUS
 62
     7
 10
377.830304458396
 20
-7.419250518762
 11
377.808552125497
 21
-7.187672922733
 12
377.830304458396
 22
-7.135316908707
 13
377.830304458396
 23
-7.135316908707
  0
SOLID
  8
図面枠
  6
CONTINUOUS
 62
     7
 10
377.830304458396
 20
-7.419250518762
 11
377.830304458396
 21
-7.135316908707
 12
377.888216513518
 22
-7.309957843307
 13
377.888216513518
 23
-7.309957843307
  0
SOLID
  8
図面枠
  6
CONTINUOUS
 62
     7
 10
377.888216513518
 20
-7.309957843307
 11
377.830304458396
 21
-7.135316908707
 12
377.888216513518
 22
-6.995927520715
 13
377.888216513518
 23
-6.995927520715
  0
SOLID
  8
図面枠
  6
CONTINUOUS
 62
     7
 10
377.888216513518
 20
-7.309957843307
 11
377.888216513518
 21
-6.995927520715
 12
377.924234986825
 22
-7.241983130524
 13
377.924234986825
 23
-7.241983130524
  0
SOLID
  8
図面枠
  6
CONTINUOUS
 62
     7
 10
377.924234986825
 20
-7.241983130524
 11
377.888216513518
 21
-6.995927520715
 12
377.924234986825
 22
-6.898409795039
 13
377.924234986825
 23
-6.898409795039
  0
SOLID
  8
図面枠
  6
CONTINUOUS
 62
     7
 10
377.924234986825
 20
-7.241983130524
 11
377.924234986825
 21
-6.898409795039
 12
377.935111153275
 22
-7.220230797625
 13
377.935111153275
 23
-7.220230797625
  0
SOLID
  8
図面枠
  6
CONTINUOUS
 62
     7
 10
377.935111153275
 20
-7.220230797625
 11
377.924234986825
 21
-6.898409795039
 12
377.935111153275
 22
-6.868963266109
 13
377.935111153275
 23
-6.868963266109
  0
SOLID
  8
図面枠
  6
CONTINUOUS
 62
     7
 10
377.935111153275
 20
-7.220230797625
 11
377.935111153275
 21
-6.868963266109
 12
377.942314847936
 22
-7.205823408302
 13
377.942314847936
 23
-7.205823408302
  0
SOLID
  8
図面枠
  6
CONTINUOUS
 62
     7
 10
377.942314847936
 20
-7.205823408302
 11
377.935111153275
 21
-6.868963266109
 12
377.942314847936
 22
-6.849459720974
 13
377.942314847936
 23
-6.849459720974
  0
SOLID
  8
図面枠
  6
CONTINUOUS
 62
     7
 10
377.942314847936
 20
-6.469392744283
 11
377.935111153275
 21
-6.463984107086
 12
377.942314847936
 22
-6.402470204634
 13
377.942314847936
 23
-6.402470204634
  0
SOLID
  8
図面枠
  6
CONTINUOUS
 62
     7
 10
377.942314847936
 20
-7.205823408302
 11
377.942314847936
 21
-6.849459720974
 12
377.960394709048
 22
-7.169663686079
 13
377.960394709048
 23
-7.169663686079
  0
SOLID
  8
図面枠
  6
CONTINUOUS
 62
     7
 10
377.960394709048
 20
-7.169663686079
 11
377.942314847936
 21
-6.849459720974
 12
377.960394709048
 22
-6.800509646908
 13
377.960394709048
 23
-6.800509646908
  0
SOLID
  8
図面枠
  6
CONTINUOUS
 62
     7
 10
377.942314847936
 20
-6.469392744283
 11
377.942314847936
 21
-6.402470204634
 12
377.960394709048
 22
-6.482967363131
 13
377.960394709048
 23
-6.482967363131
  0
SOLID
  8
図面枠
  6
CONTINUOUS
 62
     7
 10
377.960394709048
 20
-6.482967363131
 11
377.942314847936
 21
-6.402470204634
 12
377.960394709048
 22
-6.410088645596
 13
377.960394709048
 23
-6.410088645596
  0
SOLID
  8
図面枠
  6
CONTINUOUS
 62
     7
 10
377.960394709048
 20
-7.169663686079
 11
377.960394709048
 21
-6.800509646908
 12
377.978474570159
 22
-7.133503963857
 13
377.978474570159
 23
-7.133503963857
  0
SOLID
  8
図面枠
  6
CONTINUOUS
 62
     7
 10
377.978474570159
 20
-7.133503963857
 11
377.960394709048
 21
-6.800509646908
 12
377.978474570159
 22
-6.744433827681
 13
377.978474570159
 23
-6.744433827681
  0
SOLID
  8
図面枠
  6
CONTINUOUS
 62
     7
 10
377.960394709048
 20
-6.482967363131
 11
377.960394709048
 21
-6.410088645596
 12
377.978474570159
 22
-6.496541981978
 13
377.978474570159
 23
-6.496541981978
  0
SOLID
  8
図面枠
  6
CONTINUOUS
 62
     7
 10
377.978474570159
 20
-6.496541981978
 11
377.960394709048
 21
-6.410088645596
 12
377.978474570159
 22
-6.417707086557
 13
377.978474570159
 23
-6.417707086557
  0
SOLID
  8
図面枠
  6
CONTINUOUS
 62
     7
 10
377.978474570159
 20
-7.133503963857
 11
377.978474570159
 21
-6.744433827681
 12
377.99655443127
 22
-7.097344241635
 13
377.99655443127
 23
-7.097344241635
  0
SOLID
  8
図面枠
  6
CONTINUOUS
 62
     7
 10
377.99655443127
 20
-7.097344241635
 11
377.978474570159
 21
-6.744433827681
 12
377.99655443127
 22
-6.688358008454
 13
377.99655443127
 23
-6.688358008454
  0
SOLID
  8
図面枠
  6
CONTINUOUS
 62
     7
 10
377.978474570159
 20
-6.496541981978
 11
377.978474570159
 21
-6.417707086557
 12
377.99655443127
 22
-6.688358008454
 13
377.99655443127
 23
-6.688358008454
  0
SOLID
  8
図面枠
  6
CONTINUOUS
 62
     7
 10
377.99655443127
 20
-6.688358008454
 11
377.978474570159
 21
-6.417707086557
 12
377.99655443127
 22
-6.425325527519
 13
377.99655443127
 23
-6.425325527519
  0
SOLID
  8
図面枠
  6
CONTINUOUS
 62
     7
 10
377.99655443127
 20
-7.097344241635
 11
377.99655443127
 21
-6.425325527519
 12
378.018306764169
 22
-7.053839575836
 13
378.018306764169
 23
-7.053839575836
  0
SOLID
  8
図面枠
  6
CONTINUOUS
 62
     7
 10
378.018306764169
 20
-7.053839575836
 11
377.99655443127
 21
-6.425325527519
 12
378.018306764169
 22
-6.434491464301
 13
378.018306764169
 23
-6.434491464301
  0
SOLID
  8
図面枠
  6
CONTINUOUS
 62
     7
 10
378.018306764169
 20
-7.053839575836
 11
378.018306764169
 21
-6.434491464301
 12
378.079750042164
 22
-6.910238429383
 13
378.079750042164
 23
-6.910238429383
  0
SOLID
  8
図面枠
  6
CONTINUOUS
 62
     7
 10
378.079750042164
 20
-6.910238429383
 11
378.018306764169
 21
-6.434491464301
 12
378.079750042164
 22
-6.460382259756
 13
378.079750042164
 23
-6.460382259756
  0
SOLID
  8
図面枠
  6
CONTINUOUS
 62
     7
 10
378.079750042164
 20
-6.910238429383
 11
378.079750042164
 21
-6.460382259756
 12
378.105033597936
 22
-6.851147382911
 13
378.105033597936
 23
-6.851147382911
  0
SOLID
  8
図面枠
  6
CONTINUOUS
 62
     7
 10
378.105033597936
 20
-6.851147382911
 11
378.079750042164
 21
-6.460382259756
 12
378.105033597936
 22
-6.492940134647
 13
378.105033597936
 23
-6.492940134647
  0
SOLID
  8
図面枠
  6
CONTINUOUS
 62
     7
 10
378.105033597936
 20
-6.851147382911
 11
378.105033597936
 21
-6.492940134647
 12
378.177353042381
 22
-6.775155466678
 13
378.177353042381
 23
-6.775155466678
  0
SOLID
  8
図面枠
  6
CONTINUOUS
 62
     7
 10
378.177353042381
 20
-6.775155466678
 11
378.105033597936
 21
-6.492940134647
 12
378.177353042381
 22
-6.623218717185
 13
378.177353042381
 23
-6.623218717185
  0
SOLID
  8
図面枠
  6
CONTINUOUS
 62
     7
 10
378.177353042381
 20
-6.775155466678
 11
378.177353042381
 21
-6.623218717185
 12
378.213512764603
 22
-6.738995744456
 13
378.213512764603
 23
-6.738995744456
  0
SOLID
  8
図面枠
  6
CONTINUOUS
 62
     7
 10
378.213512764603
 20
-6.738995744456
 11
378.177353042381
 21
-6.623218717185
 12
378.213512764603
 22
-6.688358008454
 13
378.213512764603
 23
-6.688358008454
  0
SOLID
  8
図面枠
  6
CONTINUOUS
 62
     7
 10
378.213512764603
 20
-6.738995744456
 11
378.213512764603
 21
-6.688358008454
 12
378.220716459265
 22
-6.731792049795
 13
378.220716459265
 23
-6.731792049795
  0
ENDBLK
  8
0
  0
BLOCK
  8
0
  2
*U17
 70
     1
 10
0.0
 20
0.0
  0
SOLID
  8
図面枠
  6
CONTINUOUS
 62
     7
 10
375.039508397199
 20
-7.462684560103
 11
375.003348674976
 21
-7.241983130524
 12
375.039508397199
 22
-7.185687590762
 13
375.039508397199
 23
-7.185687590762
  0
SOLID
  8
図面枠
  6
CONTINUOUS
 62
     7
 10
375.039508397199
 20
-7.462684560103
 11
375.039508397199
 21
-7.185687590762
 12
375.166067424976
 22
-7.199420970974
 13
375.166067424976
 23
-7.199420970974
  0
SOLID
  8
図面枠
  6
CONTINUOUS
 62
     7
 10
375.166067424976
 20
-7.199420970974
 11
375.039508397199
 21
-7.185687590762
 12
375.166067424976
 22
-6.988653201596
 13
375.166067424976
 23
-6.988653201596
  0
SOLID
  8
図面枠
  6
CONTINUOUS
 62
     7
 10
375.166067424976
 20
-7.199420970974
 11
375.166067424976
 21
-6.988653201596
 12
375.176943591426
 22
-7.176796756283
 13
375.176943591426
 23
-7.176796756283
  0
SOLID
  8
図面枠
  6
CONTINUOUS
 62
     7
 10
375.176943591426
 20
-7.176796756283
 11
375.166067424976
 21
-6.988653201596
 12
375.176943591426
 22
-6.977076367732
 13
375.176943591426
 23
-6.977076367732
  0
SOLID
  8
図面枠
  6
CONTINUOUS
 62
     7
 10
375.176943591426
 20
-7.176796756283
 11
375.176943591426
 21
-6.977076367732
 12
375.325113703188
 22
-6.974175187816
 13
375.325113703188
 23
-6.974175187816
  0
SOLID
  8
図面枠
  6
CONTINUOUS
 62
     7
 10
375.325113703188
 20
-6.974175187816
 11
375.176943591426
 21
-6.977076367732
 12
375.325113703188
 22
-6.819360799892
 13
375.325113703188
 23
-6.819360799892
  0
SOLID
  8
図面枠
  6
CONTINUOUS
 62
     7
 10
375.325113703188
 20
-6.974175187816
 11
375.325113703188
 21
-6.819360799892
 12
375.335989869638
 22
-6.965153148789
 13
375.335989869638
 23
-6.965153148789
  0
SOLID
  8
図面枠
  6
CONTINUOUS
 62
     7
 10
375.335989869638
 20
-6.965153148789
 11
375.325113703188
 21
-6.819360799892
 12
375.335989869638
 22
-6.807783966027
 13
375.335989869638
 23
-6.807783966027
  0
SOLID
  8
図面枠
  6
CONTINUOUS
 62
     7
 10
375.335989869638
 20
-6.965153148789
 11
375.335989869638
 21
-6.807783966027
 12
375.473425063865
 22
-6.851147382911
 13
375.473425063865
 23
-6.851147382911
  0
SOLID
  8
図面枠
  6
CONTINUOUS
 62
     7
 10
375.473425063865
 20
-6.851147382911
 11
375.335989869638
 21
-6.807783966027
 12
375.473425063865
 22
-6.809453617029
 13
375.473425063865
 23
-6.809453617029
  0
SOLID
  8
図面枠
  6
CONTINUOUS
 62
     7
 10
375.473425063865
 20
-6.851147382911
 11
375.473425063865
 21
-6.809453617029
 12
375.632471342077
 22
-6.811385813358
 13
375.632471342077
 23
-6.811385813358
  0
ENDBLK
  8
0
  0
BLOCK
  8
0
  2
*U18
 70
     1
 10
0.0
 20
0.0
  0
SOLID
  8
図面枠
  6
CONTINUOUS
 62
     7
 10
375.513116008961
 20
-6.80993580812
 11
375.335989869638
 21
-6.807783966027
 12
375.513116008961
 22
-6.695561703115
 13
375.513116008961
 23
-6.695561703115
  0
SOLID
  8
図面枠
  6
CONTINUOUS
 62
     7
 10
375.513116008961
 20
-6.80993580812
 11
375.513116008961
 21
-6.695561703115
 12
375.632471342077
 22
-6.811385813358
 13
375.632471342077
 23
-6.811385813358
  0
SOLID
  8
図面枠
  6
CONTINUOUS
 62
     7
 10
375.632471342077
 20
-6.811385813358
 11
375.513116008961
 21
-6.695561703115
 12
375.632471342077
 22
-6.667987123902
 13
375.632471342077
 23
-6.667987123902
  0
SOLID
  8
図面枠
  6
CONTINUOUS
 62
     7
 10
375.632471342077
 20
-6.811385813358
 11
375.632471342077
 21
-6.667987123902
 12
375.701118314733
 22
-6.862954922338
 13
375.701118314733
 23
-6.862954922338
  0
SOLID
  8
図面枠
  6
CONTINUOUS
 62
     7
 10
375.701118314733
 20
-6.862954922338
 11
375.632471342077
 21
-6.667987123902
 12
375.701118314733
 22
-6.652127661774
 13
375.701118314733
 23
-6.652127661774
  0
SOLID
  8
図面枠
  6
CONTINUOUS
 62
     7
 10
375.701118314733
 20
-6.862954922338
 11
375.701118314733
 21
-6.652127661774
 12
375.726401870506
 22
-6.881948483053
 13
375.726401870506
 23
-6.881948483053
  0
SOLID
  8
図面枠
  6
CONTINUOUS
 62
     7
 10
375.726401870506
 20
-6.881948483053
 11
375.701118314733
 21
-6.652127661774
 12
375.726401870506
 22
-6.652127661774
 13
375.726401870506
 23
-6.652127661774
  0
SOLID
  8
図面枠
  6
CONTINUOUS
 62
     7
 10
375.726401870506
 20
-6.881948483053
 11
375.726401870506
 21
-6.652127661774
 12
375.776968982051
 22
-6.919935604482
 13
375.776968982051
 23
-6.919935604482
  0
SOLID
  8
図面枠
  6
CONTINUOUS
 62
     7
 10
375.776968982051
 20
-6.919935604482
 11
375.726401870506
 21
-6.652127661774
 12
375.776968982051
 22
-6.665788937877
 13
375.776968982051
 23
-6.665788937877
  0
SOLID
  8
図面枠
  6
CONTINUOUS
 62
     7
 10
375.776968982051
 20
-6.945219160255
 11
375.776968982051
 21
-6.665788937877
 12
375.92160787094
 22
-7.079123131609
 13
375.92160787094
 23
-7.079123131609
  0
SOLID
  8
図面枠
  6
CONTINUOUS
 62
     7
 10
375.92160787094
 20
-7.079123131609
 11
375.776968982051
 21
-6.665788937877
 12
375.92160787094
 22
-6.70486476673
 13
375.92160787094
 23
-6.70486476673
  0
SOLID
  8
図面枠
  6
CONTINUOUS
 62
     7
 10
375.92160787094
 20
-7.079123131609
 11
375.92160787094
 21
-6.70486476673
 12
375.946891426712
 22
-7.079123131609
 13
375.946891426712
 23
-7.079123131609
  0
SOLID
  8
図面枠
  6
CONTINUOUS
 62
     7
 10
375.946891426712
 20
-7.079123131609
 11
375.92160787094
 21
-6.70486476673
 12
375.946891426712
 22
-6.711695404781
 13
375.946891426712
 23
-6.711695404781
  0
SOLID
  8
図面枠
  6
CONTINUOUS
 62
     7
 10
375.946891426712
 20
-7.079123131609
 11
375.946891426712
 21
-6.711695404781
 12
375.954095121374
 22
-7.0695153637
 13
375.954095121374
 23
-7.0695153637
  0
SOLID
  8
図面枠
  6
CONTINUOUS
 62
     7
 10
375.954095121374
 20
-7.0695153637
 11
375.946891426712
 21
-6.711695404781
 12
375.954095121374
 22
-6.713641564226
 13
375.954095121374
 23
-6.713641564226
  0
SOLID
  8
図面枠
  6
CONTINUOUS
 62
     7
 10
375.954095121374
 20
-7.0695153637
 11
375.954095121374
 21
-6.713641564226
 12
376.001131010046
 22
-7.006782290879
 13
376.001131010046
 23
-7.006782290879
  0
SOLID
  8
図面枠
  6
CONTINUOUS
 62
     7
 10
376.001131010046
 20
-7.006782290879
 11
375.954095121374
 21
-6.713641564226
 12
376.001131010046
 22
-6.757075605567
 13
376.001131010046
 23
-6.757075605567
  0
SOLID
  8
図面枠
  6
CONTINUOUS
 62
     7
 10
376.001131010046
 20
-7.006782290879
 11
376.001131010046
 21
-6.757075605567
 12
376.066246759829
 22
-6.919935604482
 13
376.066246759829
 23
-6.919935604482
  0
ENDBLK
  8
0
  0
BLOCK
  8
0
  2
*U19
 70
     1
 10
0.0
 20
0.0
  0
SOLID
  8
図面枠
  6
CONTINUOUS
 62
     7
 10
376.543385594464
 20
-7.252788672516
 11
376.543385594464
 21
-7.14791135318
 12
376.550589289126
 22
-7.36133846364
 13
376.550589289126
 23
-7.36133846364
  0
SOLID
  8
図面枠
  6
CONTINUOUS
 62
     7
 10
376.550589289126
 20
-7.36133846364
 11
376.543385594464
 21
-7.14791135318
 12
376.550589289126
 22
-6.930811770932
 13
376.550589289126
 23
-6.930811770932
  0
SOLID
  8
図面枠
  6
CONTINUOUS
 62
     7
 10
376.550589289126
 20
-7.36133846364
 11
376.550589289126
 21
-6.930811770932
 12
376.557792983787
 22
-7.469888254764
 13
376.557792983787
 23
-7.469888254764
  0
SOLID
  8
図面枠
  6
CONTINUOUS
 62
     7
 10
376.557792983787
 20
-7.469888254764
 11
376.550589289126
 21
-6.930811770932
 12
376.557792983787
 22
-6.860107975602
 13
376.557792983787
 23
-6.860107975602
  0
SOLID
  8
図面枠
  6
CONTINUOUS
 62
     7
 10
376.557792983787
 20
-7.469888254764
 11
376.557792983787
 21
-6.860107975602
 12
376.572341622025
 22
-7.577157848405
 13
376.572341622025
 23
-7.577157848405
  0
SOLID
  8
図面枠
  6
CONTINUOUS
 62
     7
 10
376.572341622025
 20
-7.577157848405
 11
376.557792983787
 21
-6.860107975602
 12
376.572341622025
 22
-6.717314036014
 13
376.572341622025
 23
-6.717314036014
  0
SOLID
  8
図面枠
  6
CONTINUOUS
 62
     7
 10
376.572341622025
 20
-7.577157848405
 11
376.572341622025
 21
-6.717314036014
 12
376.586749011348
 22
-7.683385989682
 13
376.586749011348
 23
-7.683385989682
  0
SOLID
  8
図面枠
  6
CONTINUOUS
 62
     7
 10
376.586749011348
 20
-7.683385989682
 11
376.572341622025
 21
-6.717314036014
 12
376.586749011348
 22
-6.624229772824
 13
376.586749011348
 23
-6.624229772824
  0
SOLID
  8
図面枠
  6
CONTINUOUS
 62
     7
 10
376.586749011348
 20
-7.683385989682
 11
376.586749011348
 21
-6.624229772824
 12
376.604828872459
 22
-7.777023000862
 13
376.604828872459
 23
-7.777023000862
  0
SOLID
  8
図面枠
  6
CONTINUOUS
 62
     7
 10
376.604828872459
 20
-7.777023000862
 11
376.586749011348
 21
-6.624229772824
 12
376.604828872459
 22
-6.507418148428
 13
376.604828872459
 23
-6.507418148428
  0
SOLID
  8
図面枠
  6
CONTINUOUS
 62
     7
 10
376.604828872459
 20
-7.777023000862
 11
376.604828872459
 21
-6.507418148428
 12
376.626581205358
 22
-7.889680029938
 13
376.626581205358
 23
-7.889680029938
  0
SOLID
  8
図面枠
  6
CONTINUOUS
 62
     7
 10
376.626581205358
 20
-7.889680029938
 11
376.604828872459
 21
-6.507418148428
 12
376.626581205358
 22
-6.418707517051
 13
376.626581205358
 23
-6.418707517051
  0
SOLID
  8
図面枠
  6
CONTINUOUS
 62
     7
 10
376.626581205358
 20
-7.889680029938
 11
376.626581205358
 21
-6.418707517051
 12
376.655395984004
 22
-7.997322738186
 13
376.655395984004
 23
-7.997322738186
  0
SOLID
  8
図面枠
  6
CONTINUOUS
 62
     7
 10
376.655395984004
 20
-7.997322738186
 11
376.626581205358
 21
-6.418707517051
 12
376.655395984004
 22
-6.301194732629
 13
376.655395984004
 23
-6.301194732629
  0
SOLID
  8
図面枠
  6
CONTINUOUS
 62
     7
 10
376.655395984004
 20
-7.997322738186
 11
376.655395984004
 21
-6.301194732629
 12
376.677148316903
 22
-8.078582429708
 13
376.677148316903
 23
-8.078582429708
  0
SOLID
  8
図面枠
  6
CONTINUOUS
 62
     7
 10
376.677148316903
 20
-8.078582429708
 11
376.655395984004
 21
-6.301194732629
 12
376.677148316903
 22
-6.23089877608
 13
376.677148316903
 23
-6.23089877608
  0
SOLID
  8
図面枠
  6
CONTINUOUS
 62
     7
 10
376.677148316903
 20
-8.078582429708
 11
376.677148316903
 21
-7.14791135318
 12
376.680820788692
 22
-8.092301598406
 13
376.680820788692
 23
-8.092301598406
  0
SOLID
  8
図面枠
  6
CONTINUOUS
 62
     7
 10
376.680820788692
 20
-8.092301598406
 11
376.677148316903
 21
-7.14791135318
 12
376.680820788692
 22
-7.265970519784
 13
376.680820788692
 23
-7.265970519784
  0
SOLID
  8
図面枠
  6
CONTINUOUS
 62
     7
 10
376.677148316903
 20
-7.14791135318
 11
376.677148316903
 21
-6.23089877608
 12
376.680820788692
 22
-6.959697174035
 13
376.680820788692
 23
-6.959697174035
  0
SOLID
  8
図面枠
  6
CONTINUOUS
 62
     7
 10
376.680820788692
 20
-6.959697174035
 11
376.677148316903
 21
-6.23089877608
 12
376.680820788692
 22
-6.219030627572
 13
376.680820788692
 23
-6.219030627572
  0
SOLID
  8
図面枠
  6
CONTINUOUS
 62
     7
 10
376.680820788692
 20
-8.092301598406
 11
376.680820788692
 21
-7.265970519784
 12
376.684352011565
 22
-8.101858704538
 13
376.684352011565
 23
-8.101858704538
  0
SOLID
  8
図面枠
  6
CONTINUOUS
 62
     7
 10
376.684352011565
 20
-8.101858704538
 11
376.680820788692
 21
-7.265970519784
 12
376.684352011565
 22
-7.379488949209
 13
376.684352011565
 23
-7.379488949209
  0
SOLID
  8
図面枠
  6
CONTINUOUS
 62
     7
 10
376.680820788692
 20
-6.959697174035
 11
376.680820788692
 21
-6.219030627572
 12
376.684352011565
 22
-6.915887940264
 13
376.684352011565
 23
-6.915887940264
  0
SOLID
  8
図面枠
  6
CONTINUOUS
 62
     7
 10
376.684352011565
 20
-6.915887940264
 11
376.680820788692
 21
-6.219030627572
 12
376.684352011565
 22
-6.207618946315
 13
376.684352011565
 23
-6.207618946315
  0
SOLID
  8
図面枠
  6
CONTINUOUS
 62
     7
 10
376.684352011565
 20
-8.101858704538
 11
376.684352011565
 21
-7.379488949209
 12
376.698900649803
 22
-8.141233981804
 13
376.698900649803
 23
-8.141233981804
  0
SOLID
  8
図面枠
  6
CONTINUOUS
 62
     7
 10
376.698900649803
 20
-8.141233981804
 11
376.684352011565
 21
-7.379488949209
 12
376.698900649803
 22
-7.557084630824
 13
376.698900649803
 23
-7.557084630824
  0
SOLID
  8
図面枠
  6
CONTINUOUS
 62
     7
 10
376.684352011565
 20
-6.915887940264
 11
376.684352011565
 21
-6.207618946315
 12
376.698900649803
 22
-6.735393897126
 13
376.698900649803
 23
-6.735393897126
  0
SOLID
  8
図面枠
  6
CONTINUOUS
 62
     7
 10
376.698900649803
 20
-6.735393897126
 11
376.684352011565
 21
-6.207618946315
 12
376.698900649803
 22
-6.160602819532
 13
376.698900649803
 23
-6.160602819532
  0
SOLID
  8
図面枠
  6
CONTINUOUS
 62
     7
 10
376.698900649803
 20
-8.141233981804
 11
376.698900649803
 21
-7.557084630824
 12
376.702431872676
 22
-8.150791087937
 13
376.702431872676
 23
-8.150791087937
  0
SOLID
  8
図面枠
  6
CONTINUOUS
 62
     7
 10
376.702431872676
 20
-8.150791087937
 11
376.698900649803
 21
-7.557084630824
 12
376.702431872676
 22
-7.600190378788
 13
376.702431872676
 23
-7.600190378788
  0
SOLID
  8
図面枠
  6
CONTINUOUS
 62
     7
 10
376.698900649803
 20
-6.735393897126
 11
376.698900649803
 21
-6.160602819532
 12
376.702431872676
 22
-6.711796116447
 13
376.702431872676
 23
-6.711796116447
  0
SOLID
  8
図面枠
  6
CONTINUOUS
 62
     7
 10
376.702431872676
 20
-6.711796116447
 11
376.698900649803
 21
-6.160602819532
 12
376.702431872676
 22
-6.149191138274
 13
376.702431872676
 23
-6.149191138274
  0
SOLID
  8
図面枠
  6
CONTINUOUS
 62
     7
 10
376.702431872676
 20
-8.150791087937
 11
376.702431872676
 21
-7.600190378788
 12
376.716980510914
 22
-8.190166365203
 13
376.716980510914
 23
-8.190166365203
  0
SOLID
  8
図面枠
  6
CONTINUOUS
 62
     7
 10
376.716980510914
 20
-8.190166365203
 11
376.702431872676
 21
-7.600190378788
 12
376.716980510914
 22
-7.687539038833
 13
376.716980510914
 23
-7.687539038833
  0
SOLID
  8
図面枠
  6
CONTINUOUS
 62
     7
 10
376.702431872676
 20
-6.711796116447
 11
376.702431872676
 21
-6.149191138274
 12
376.716980510914
 22
-6.614573260048
 13
376.716980510914
 23
-6.614573260048
  0
SOLID
  8
図面枠
  6
CONTINUOUS
 62
     7
 10
376.716980510914
 20
-6.614573260048
 11
376.702431872676
 21
-6.149191138274
 12
376.716980510914
 22
-6.102175011492
 13
376.716980510914
 23
-6.102175011492
  0
SOLID
  8
図面枠
  6
CONTINUOUS
 62
     7
 10
376.716980510914
 20
-8.190166365203
 11
376.716980510914
 21
-7.687539038833
 12
376.731387900237
 22
-8.229159358224
 13
376.731387900237
 23
-8.229159358224
  0
SOLID
  8
図面枠
  6
CONTINUOUS
 62
     7
 10
376.731387900237
 20
-8.229159358224
 11
376.716980510914
 21
-7.687539038833
 12
376.731387900237
 22
-7.774039653635
 13
376.731387900237
 23
-7.774039653635
  0
SOLID
  8
図面枠
  6
CONTINUOUS
 62
     7
 10
376.716980510914
 20
-6.614573260048
 11
376.716980510914
 21
-6.102175011492
 12
376.731387900237
 22
-6.518294314877
 13
376.731387900237
 23
-6.518294314877
  0
SOLID
  8
図面枠
  6
CONTINUOUS
 62
     7
 10
376.731387900237
 20
-6.518294314877
 11
376.716980510914
 21
-6.102175011492
 12
376.731387900237
 22
-6.065740682441
 13
376.731387900237
 23
-6.065740682441
  0
SOLID
  8
図面枠
  6
CONTINUOUS
 62
     7
 10
376.731387900237
 20
-8.229159358224
 11
376.731387900237
 21
-7.774039653635
 12
376.738591594898
 22
-8.248655854734
 13
376.738591594898
 23
-8.248655854734
  0
SOLID
  8
図面枠
  6
CONTINUOUS
 62
     7
 10
376.738591594898
 20
-8.248655854734
 11
376.731387900237
 21
-7.774039653635
 12
376.738591594898
 22
-7.817289961036
 13
376.738591594898
 23
-7.817289961036
  0
SOLID
  8
図面枠
  6
CONTINUOUS
 62
     7
 10
376.731387900237
 20
-6.518294314877
 11
376.731387900237
 21
-6.065740682441
 12
376.738591594898
 22
-6.483425616939
 13
376.738591594898
 23
-6.483425616939
  0
SOLID
  8
図面枠
  6
CONTINUOUS
 62
     7
 10
376.738591594898
 20
-6.483425616939
 11
376.731387900237
 21
-6.065740682441
 12
376.738591594898
 22
-6.047523517915
 13
376.738591594898
 23
-6.047523517915
  0
SOLID
  8
図面枠
  6
CONTINUOUS
 62
     7
 10
376.738591594898
 20
-8.248655854734
 11
376.738591594898
 21
-7.817289961036
 12
376.752998984221
 22
-8.287648847755
 13
376.752998984221
 23
-8.287648847755
  0
SOLID
  8
図面枠
  6
CONTINUOUS
 62
     7
 10
376.752998984221
 20
-8.287648847755
 11
376.738591594898
 21
-7.817289961036
 12
376.752998984221
 22
-7.881582395072
 13
376.752998984221
 23
-7.881582395072
  0
SOLID
  8
図面枠
  6
CONTINUOUS
 62
     7
 10
376.738591594898
 20
-6.483425616939
 11
376.738591594898
 21
-6.047523517915
 12
376.752998984221
 22
-6.413688221064
 13
376.752998984221
 23
-6.413688221064
  0
SOLID
  8
図面枠
  6
CONTINUOUS
 62
     7
 10
376.752998984221
 20
-6.413688221064
 11
376.738591594898
 21
-6.047523517915
 12
376.752998984221
 22
-6.011089188864
 13
376.752998984221
 23
-6.011089188864
  0
SOLID
  8
図面枠
  6
CONTINUOUS
 62
     7
 10
376.752998984221
 20
-8.287648847755
 11
376.752998984221
 21
-7.881582395072
 12
376.77475131712
 22
-8.337801085577
 13
376.77475131712
 23
-8.337801085577
  0
SOLID
  8
図面枠
  6
CONTINUOUS
 62
     7
 10
376.77475131712
 20
-8.337801085577
 11
376.752998984221
 21
-7.881582395072
 12
376.77475131712
 22
-7.978651364106
 13
376.77475131712
 23
-7.978651364106
  0
SOLID
  8
図面枠
  6
CONTINUOUS
 62
     7
 10
376.752998984221
 20
-6.413688221064
 11
376.752998984221
 21
-6.011089188864
 12
376.77475131712
 22
-6.30839842729
 13
376.77475131712
 23
-6.30839842729
  0
SOLID
  8
図面枠
  6
CONTINUOUS
 62
     7
 10
376.77475131712
 20
-6.30839842729
 11
376.752998984221
 21
-6.011089188864
 12
376.77475131712
 22
-5.956080495982
 13
376.77475131712
 23
-5.956080495982
  0
SOLID
  8
図面枠
  6
CONTINUOUS
 62
     7
 10
376.77475131712
 20
-8.337801085577
 11
376.77475131712
 21
-7.978651364106
 12
376.78562748357
 22
-8.362877204488
 13
376.78562748357
 23
-8.362877204488
  0
SOLID
  8
図面枠
  6
CONTINUOUS
 62
     7
 10
376.78562748357
 20
-8.362877204488
 11
376.77475131712
 21
-7.978651364106
 12
376.78562748357
 22
-8.027185848623
 13
376.78562748357
 23
-8.027185848623
  0
SOLID
  8
図面枠
  6
CONTINUOUS
 62
     7
 10
376.77475131712
 20
-6.30839842729
 11
376.77475131712
 21
-5.956080495982
 12
376.78562748357
 22
-6.269573970037
 13
376.78562748357
 23
-6.269573970037
  0
SOLID
  8
図面枠
  6
CONTINUOUS
 62
     7
 10
376.78562748357
 20
-6.269573970037
 11
376.77475131712
 21
-5.956080495982
 12
376.78562748357
 22
-5.928576149542
 13
376.78562748357
 23
-5.928576149542
  0
SOLID
  8
図面枠
  6
CONTINUOUS
 62
     7
 10
376.78562748357
 20
-8.362877204488
 11
376.78562748357
 21
-8.027185848623
 12
376.792831178232
 22
-8.379486062468
 13
376.792831178232
 23
-8.379486062468
  0
SOLID
  8
図面枠
  6
CONTINUOUS
 62
     7
 10
376.792831178232
 20
-8.379486062468
 11
376.78562748357
 21
-8.027185848623
 12
376.792831178232
 22
-8.052900748882
 13
376.792831178232
 23
-8.052900748882
  0
SOLID
  8
図面枠
  6
CONTINUOUS
 62
     7
 10
376.78562748357
 20
-6.269573970037
 11
376.78562748357
 21
-5.928576149542
 12
376.792831178232
 22
-6.243859069779
 13
376.792831178232
 23
-6.243859069779
  0
SOLID
  8
図面枠
  6
CONTINUOUS
 62
     7
 10
376.792831178232
 20
-6.243859069779
 11
376.78562748357
 21
-5.928576149542
 12
376.792831178232
 22
-5.910358985016
 13
376.792831178232
 23
-5.910358985016
  0
SOLID
  8
図面枠
  6
CONTINUOUS
 62
     7
 10
376.792831178232
 20
-8.379486062468
 11
376.792831178232
 21
-8.052900748882
 12
376.832522123327
 22
-8.4709976133
 13
376.832522123327
 23
-8.4709976133
  0
SOLID
  8
図面枠
  6
CONTINUOUS
 62
     7
 10
376.832522123327
 20
-8.4709976133
 11
376.792831178232
 21
-8.052900748882
 12
376.832522123327
 22
-8.194584807169
 13
376.832522123327
 23
-8.194584807169
  0
SOLID
  8
図面枠
  6
CONTINUOUS
 62
     7
 10
376.792831178232
 20
-6.243859069779
 11
376.792831178232
 21
-5.910358985016
 12
376.832522123327
 22
-6.102175011492
 13
376.832522123327
 23
-6.102175011492
  0
SOLID
  8
図面枠
  6
CONTINUOUS
 62
     7
 10
376.832522123327
 20
-6.102175011492
 11
376.792831178232
 21
-5.910358985016
 12
376.832522123327
 22
-5.826170769443
 13
376.832522123327
 23
-5.826170769443
  0
SOLID
  8
図面枠
  6
CONTINUOUS
 62
     7
 10
376.832522123327
 20
-8.4709976133
 11
376.832522123327
 21
-8.194584807169
 12
376.836194595115
 22
-8.479464874231
 13
376.836194595115
 23
-8.479464874231
  0
SOLID
  8
図面枠
  6
CONTINUOUS
 62
     7
 10
376.836194595115
 20
-8.479464874231
 11
376.832522123327
 21
-8.194584807169
 12
376.836194595115
 22
-8.207694364163
 13
376.836194595115
 23
-8.207694364163
  0
SOLID
  8
図面枠
  6
CONTINUOUS
 62
     7
 10
376.832522123327
 20
-6.102175011492
 11
376.832522123327
 21
-5.826170769443
 12
376.836194595115
 22
-6.092068541278
 13
376.836194595115
 23
-6.092068541278
  0
SOLID
  8
図面枠
  6
CONTINUOUS
 62
     7
 10
376.836194595115
 20
-6.092068541278
 11
376.832522123327
 21
-5.826170769443
 12
376.836194595115
 22
-5.818381112486
 13
376.836194595115
 23
-5.818381112486
  0
SOLID
  8
図面枠
  6
CONTINUOUS
 62
     7
 10
376.836194595115
 20
-8.479464874231
 11
376.836194595115
 21
-8.207694364163
 12
376.843398289777
 22
-8.493893928801
 13
376.843398289777
 23
-8.493893928801
  0
SOLID
  8
図面枠
  6
CONTINUOUS
 62
     7
 10
376.843398289777
 20
-8.493893928801
 11
376.836194595115
 21
-8.207694364163
 12
376.843398289777
 22
-8.233409264422
 13
376.843398289777
 23
-8.233409264422
  0
SOLID
  8
図面枠
  6
CONTINUOUS
 62
     7
 10
376.836194595115
 20
-6.092068541278
 11
376.836194595115
 21
-5.818381112486
 12
376.843398289777
 22
-6.072244311243
 13
376.843398289777
 23
-6.072244311243
  0
SOLID
  8
図面枠
  6
CONTINUOUS
 62
     7
 10
376.843398289777
 20
-6.072244311243
 11
376.836194595115
 21
-5.818381112486
 12
376.843398289777
 22
-5.803101400762
 13
376.843398289777
 23
-5.803101400762
  0
SOLID
  8
図面枠
  6
CONTINUOUS
 62
     7
 10
376.843398289777
 20
-8.493893928801
 11
376.843398289777
 21
-8.233409264422
 12
376.883230483787
 22
-8.573678112894
 13
376.883230483787
 23
-8.573678112894
  0
SOLID
  8
図面枠
  6
CONTINUOUS
 62
     7
 10
376.883230483787
 20
-8.573678112894
 11
376.843398289777
 21
-8.233409264422
 12
376.883230483787
 22
-8.335840194558
 13
376.883230483787
 23
-8.335840194558
  0
SOLID
  8
図面枠
  6
CONTINUOUS
 62
     7
 10
376.843398289777
 20
-6.072244311243
 11
376.843398289777
 21
-5.803101400762
 12
376.883230483787
 22
-5.96262798046
 13
376.883230483787
 23
-5.96262798046
  0
SOLID
  8
図面枠
  6
CONTINUOUS
 62
     7
 10
376.883230483787
 20
-5.96262798046
 11
376.843398289777
 21
-5.803101400762
 12
376.883230483787
 22
-5.718613582998
 13
376.883230483787
 23
-5.718613582998
  0
SOLID
  8
図面枠
  6
CONTINUOUS
 62
     7
 10
376.883230483787
 20
-8.573678112894
 11
376.883230483787
 21
-8.335840194558
 12
376.904841567771
 22
-8.616965276604
 13
376.904841567771
 23
-8.616965276604
  0
SOLID
  8
図面枠
  6
CONTINUOUS
 62
     7
 10
376.904841567771
 20
-8.616965276604
 11
376.883230483787
 21
-8.335840194558
 12
376.904841567771
 22
-8.391414422611
 13
376.904841567771
 23
-8.391414422611
  0
SOLID
  8
図面枠
  6
CONTINUOUS
 62
     7
 10
376.883230483787
 20
-5.96262798046
 11
376.883230483787
 21
-5.718613582998
 12
376.904841567771
 22
-5.903155290355
 13
376.904841567771
 23
-5.903155290355
  0
SOLID
  8
図面枠
  6
CONTINUOUS
 62
     7
 10
376.904841567771
 20
-5.903155290355
 11
376.883230483787
 21
-5.718613582998
 12
376.904841567771
 22
-5.680561182424
 13
376.904841567771
 23
-5.680561182424
  0
SOLID
  8
図面枠
  6
CONTINUOUS
 62
     7
 10
376.904841567771
 20
-8.616965276604
 11
376.904841567771
 21
-8.391414422611
 12
376.919390206009
 22
-8.646106308382
 13
376.919390206009
 23
-8.646106308382
  0
SOLID
  8
図面枠
  6
CONTINUOUS
 62
     7
 10
376.919390206009
 20
-8.646106308382
 11
376.904841567771
 21
-8.391414422611
 12
376.919390206009
 22
-8.428827138228
 13
376.919390206009
 23
-8.428827138228
  0
SOLID
  8
図面枠
  6
CONTINUOUS
 62
     7
 10
376.904841567771
 20
-5.903155290355
 11
376.904841567771
 21
-5.680561182424
 12
376.919390206009
 22
-5.8696242608
 13
376.919390206009
 23
-5.8696242608
  0
SOLID
  8
図面枠
  6
CONTINUOUS
 62
     7
 10
376.919390206009
 20
-5.8696242608
 11
376.904841567771
 21
-5.680561182424
 12
376.919390206009
 22
-5.654944206875
 13
376.919390206009
 23
-5.654944206875
  0
SOLID
  8
図面枠
  6
CONTINUOUS
 62
     7
 10
376.919390206009
 20
-8.646106308382
 11
376.919390206009
 21
-8.428827138228
 12
376.930125123544
 22
-8.667608428918
 13
376.930125123544
 23
-8.667608428918
  0
SOLID
  8
図面枠
  6
CONTINUOUS
 62
     7
 10
376.930125123544
 20
-8.667608428918
 11
376.919390206009
 21
-8.428827138228
 12
376.930125123544
 22
-8.452561096784
 13
376.930125123544
 23
-8.452561096784
  0
SOLID
  8
図面枠
  6
CONTINUOUS
 62
     7
 10
376.919390206009
 20
-5.8696242608
 11
376.919390206009
 21
-5.654944206875
 12
376.930125123544
 22
-5.844882918604
 13
376.930125123544
 23
-5.844882918604
  0
SOLID
  8
図面枠
  6
CONTINUOUS
 62
     7
 10
376.930125123544
 20
-5.844882918604
 11
376.919390206009
 21
-5.654944206875
 12
376.930125123544
 22
-5.636042360838
 13
376.930125123544
 23
-5.636042360838
  0
SOLID
  8
図面枠
  6
CONTINUOUS
 62
     7
 10
376.930125123544
 20
-8.667608428918
 11
376.930125123544
 21
-8.452561096784
 12
376.988037178666
 22
-8.761040850342
 13
376.988037178666
 23
-8.761040850342
  0
SOLID
  8
図面枠
  6
CONTINUOUS
 62
     7
 10
376.988037178666
 20
-8.761040850342
 11
376.930125123544
 21
-8.452561096784
 12
376.988037178666
 22
-8.580599557415
 13
376.988037178666
 23
-8.580599557415
  0
SOLID
  8
図面枠
  6
CONTINUOUS
 62
     7
 10
376.930125123544
 20
-5.844882918604
 11
376.930125123544
 21
-5.636042360838
 12
376.988037178666
 22
-5.711409888336
 13
376.988037178666
 23
-5.711409888336
  0
SOLID
  8
図面枠
  6
CONTINUOUS
 62
     7
 10
376.988037178666
 20
-5.711409888336
 11
376.930125123544
 21
-5.636042360838
 12
376.988037178666
 22
-5.534071875641
 13
376.988037178666
 23
-5.534071875641
  0
SOLID
  8
図面枠
  6
CONTINUOUS
 62
     7
 10
376.988037178666
 20
-8.761040850342
 11
376.988037178666
 21
-8.580599557415
 12
377.006117039777
 22
-8.790209996543
 13
377.006117039777
 23
-8.790209996543
  0
SOLID
  8
図面枠
  6
CONTINUOUS
 62
     7
 10
377.006117039777
 20
-8.790209996543
 11
376.988037178666
 21
-8.580599557415
 12
377.006117039777
 22
-8.620572540246
 13
377.006117039777
 23
-8.620572540246
  0
SOLID
  8
図面枠
  6
CONTINUOUS
 62
     7
 10
376.988037178666
 20
-5.711409888336
 11
376.988037178666
 21
-5.534071875641
 12
377.006117039777
 22
-5.67654532259
 13
377.006117039777
 23
-5.67654532259
  0
SOLID
  8
図面枠
  6
CONTINUOUS
 62
     7
 10
377.006117039777
 20
-5.67654532259
 11
376.988037178666
 21
-5.534071875641
 12
377.006117039777
 22
-5.506340005343
 13
377.006117039777
 23
-5.506340005343
  0
SOLID
  8
図面枠
  6
CONTINUOUS
 62
     7
 10
377.006117039777
 20
-8.790209996543
 11
377.006117039777
 21
-8.620572540246
 12
377.042276761999
 22
-8.848548288944
 13
377.042276761999
 23
-8.848548288944
  0
SOLID
  8
図面枠
  6
CONTINUOUS
 62
     7
 10
377.042276761999
 20
-8.848548288944
 11
377.006117039777
 21
-8.620572540246
 12
377.042276761999
 22
-8.689680641687
 13
377.042276761999
 23
-8.689680641687
  0
SOLID
  8
図面枠
  6
CONTINUOUS
 62
     7
 10
377.006117039777
 20
-5.67654532259
 11
377.006117039777
 21
-5.506340005343
 12
377.042276761999
 22
-5.606816191098
 13
377.042276761999
 23
-5.606816191098
  0
SOLID
  8
図面枠
  6
CONTINUOUS
 62
     7
 10
377.042276761999
 20
-5.606816191098
 11
377.006117039777
 21
-5.506340005343
 12
377.042276761999
 22
-5.450876264747
 13
377.042276761999
 23
-5.450876264747
  0
SOLID
  8
図面枠
  6
CONTINUOUS
 62
     7
 10
377.042276761999
 20
-8.848548288944
 11
377.042276761999
 21
-8.689680641687
 12
377.085640178883
 22
-8.772556372711
 13
377.085640178883
 23
-8.772556372711
  0
SOLID
  8
図面枠
  6
CONTINUOUS
 62
     7
 10
377.042276761999
 20
-5.606816191098
 11
377.042276761999
 21
-5.450876264747
 12
377.085640178883
 22
-5.523195709191
 13
377.085640178883
 23
-5.523195709191
  0
ENDBLK
  8
0
  0
BLOCK
  8
0
  2
*U20
 70
     1
 10
0.0
 20
0.0
  0
SOLID
  8
図面枠
  6
CONTINUOUS
 62
     7
 10
374.298516589473
 20
-8.653130415138
 11
374.298516589473
 21
-8.548182471344
 12
374.331003839907
 22
-8.653130415138
 13
374.331003839907
 23
-8.653130415138
  0
SOLID
  8
図面枠
  6
CONTINUOUS
 62
     7
 10
374.331003839907
 20
-8.653130415138
 11
374.298516589473
 21
-8.548182471344
 12
374.331003839907
 22
-8.548182471344
 13
374.331003839907
 23
-8.548182471344
  0
SOLID
  8
図面枠
  6
CONTINUOUS
 62
     7
 10
374.331003839907
 20
-8.653130415138
 11
374.331003839907
 21
-8.548182471344
 12
374.457562867685
 22
-8.653130415138
 13
374.457562867685
 23
-8.653130415138
  0
SOLID
  8
図面枠
  6
CONTINUOUS
 62
     7
 10
374.457562867685
 20
-8.653130415138
 11
374.331003839907
 21
-8.548182471344
 12
374.457562867685
 22
-8.548182471344
 13
374.457562867685
 23
-8.548182471344
  0
SOLID
  8
図面枠
  6
CONTINUOUS
 62
     7
 10
374.331003839907
 20
-6.757075605567
 11
374.331003839907
 21
-6.652127661774
 12
374.457562867685
 22
-6.757075605567
 13
374.457562867685
 23
-6.757075605567
  0
SOLID
  8
図面枠
  6
CONTINUOUS
 62
     7
 10
374.457562867685
 20
-6.757075605567
 11
374.331003839907
 21
-6.652127661774
 12
374.457562867685
 22
-6.652127661774
 13
374.457562867685
 23
-6.652127661774
  0
SOLID
  8
図面枠
  6
CONTINUOUS
 62
     7
 10
374.457562867685
 20
-8.653130415138
 11
374.457562867685
 21
-8.548182471344
 12
374.634689007008
 22
-8.653130415138
 13
374.634689007008
 23
-8.653130415138
  0
SOLID
  8
図面枠
  6
CONTINUOUS
 62
     7
 10
374.634689007008
 20
-8.653130415138
 11
374.457562867685
 21
-8.548182471344
 12
374.634689007008
 22
-8.548182471344
 13
374.634689007008
 23
-8.548182471344
  0
SOLID
  8
図面枠
  6
CONTINUOUS
 62
     7
 10
374.457562867685
 20
-6.757075605567
 11
374.457562867685
 21
-6.652127661774
 12
374.634689007008
 22
-6.757075605567
 13
374.634689007008
 23
-6.757075605567
  0
SOLID
  8
図面枠
  6
CONTINUOUS
 62
     7
 10
374.634689007008
 20
-6.757075605567
 11
374.457562867685
 21
-6.652127661774
 12
374.634689007008
 22
-6.631130589629
 13
374.634689007008
 23
-6.631130589629
  0
SOLID
  8
図面枠
  6
CONTINUOUS
 62
     7
 10
374.634689007008
 20
-8.653130415138
 11
374.634689007008
 21
-8.548182471344
 12
374.65997256278
 22
-8.653130415138
 13
374.65997256278
 23
-8.653130415138
  0
SOLID
  8
図面枠
  6
CONTINUOUS
 62
     7
 10
374.65997256278
 20
-8.653130415138
 11
374.634689007008
 21
-8.548182471344
 12
374.65997256278
 22
-8.524787774963
 13
374.65997256278
 23
-8.524787774963
  0
SOLID
  8
図面枠
  6
CONTINUOUS
 62
     7
 10
374.634689007008
 20
-6.757075605567
 11
374.634689007008
 21
-6.631130589629
 12
374.65997256278
 22
-6.760748077356
 13
374.65997256278
 23
-6.760748077356
  0
SOLID
  8
図面枠
  6
CONTINUOUS
 62
     7
 10
374.65997256278
 20
-6.760748077356
 11
374.634689007008
 21
-6.631130589629
 12
374.65997256278
 22
-6.628133399905
 13
374.65997256278
 23
-6.628133399905
  0
SOLID
  8
図面枠
  6
CONTINUOUS
 62
     7
 10
374.65997256278
 20
-8.653130415138
 11
374.65997256278
 21
-8.524787774963
 12
374.67084872923
 22
-8.653130415138
 13
374.67084872923
 23
-8.653130415138
  0
SOLID
  8
図面枠
  6
CONTINUOUS
 62
     7
 10
374.67084872923
 20
-8.653130415138
 11
374.65997256278
 21
-8.524787774963
 12
374.67084872923
 22
-8.51472413462
 13
374.67084872923
 23
-8.51472413462
  0
SOLID
  8
図面枠
  6
CONTINUOUS
 62
     7
 10
374.65997256278
 20
-6.760748077356
 11
374.65997256278
 21
-6.628133399905
 12
374.67084872923
 22
-6.775253923023
 13
374.67084872923
 23
-6.775253923023
  0
SOLID
  8
図面枠
  6
CONTINUOUS
 62
     7
 10
374.67084872923
 20
-6.775253923023
 11
374.65997256278
 21
-6.628133399905
 12
374.67084872923
 22
-6.626844106001
 13
374.67084872923
 23
-6.626844106001
  0
SOLID
  8
図面枠
  6
CONTINUOUS
 62
     7
 10
374.67084872923
 20
-8.653130415138
 11
374.67084872923
 21
-8.51472413462
 12
374.779327895896
 22
-8.653130415138
 13
374.779327895896
 23
-8.653130415138
  0
SOLID
  8
図面枠
  6
CONTINUOUS
 62
     7
 10
374.779327895896
 20
-8.653130415138
 11
374.67084872923
 21
-8.51472413462
 12
374.779327895896
 22
-8.414349124448
 13
374.779327895896
 23
-8.414349124448
  0
SOLID
  8
図面枠
  6
CONTINUOUS
 62
     7
 10
374.67084872923
 20
-6.775253923023
 11
374.67084872923
 21
-6.626844106001
 12
374.779327895896
 22
-6.919935604482
 13
374.779327895896
 23
-6.919935604482
  0
SOLID
  8
図面枠
  6
CONTINUOUS
 62
     7
 10
374.779327895896
 20
-6.919935604482
 11
374.67084872923
 21
-6.626844106001
 12
374.779327895896
 22
-6.592290055281
 13
374.779327895896
 23
-6.592290055281
  0
SOLID
  8
図面枠
  6
CONTINUOUS
 62
     7
 10
374.779327895896
 20
-8.653130415138
 11
374.779327895896
 21
-6.592290055281
 12
374.909418146547
 22
-8.653130415138
 13
374.909418146547
 23
-8.653130415138
  0
SOLID
  8
図面枠
  6
CONTINUOUS
 62
     7
 10
374.909418146547
 20
-8.653130415138
 11
374.779327895896
 21
-6.592290055281
 12
374.909418146547
 22
-6.550852189769
 13
374.909418146547
 23
-6.550852189769
  0
SOLID
  8
図面枠
  6
CONTINUOUS
 62
     7
 10
374.909418146547
 20
-8.653130415138
 11
374.909418146547
 21
-6.550852189769
 12
374.970861424542
 22
-8.653130415138
 13
374.970861424542
 23
-8.653130415138
  0
SOLID
  8
図面枠
  6
CONTINUOUS
 62
     7
 10
374.970861424542
 20
-8.653130415138
 11
374.909418146547
 21
-6.550852189769
 12
374.970861424542
 22
-6.525498009539
 13
374.970861424542
 23
-6.525498009539
  0
SOLID
  8
図面枠
  6
CONTINUOUS
 62
     7
 10
374.970861424542
 20
-8.653130415138
 11
374.970861424542
 21
-6.525498009539
 12
375.003348674976
 22
-8.653130415138
 13
375.003348674976
 23
-8.653130415138
  0
SOLID
  8
図面枠
  6
CONTINUOUS
 62
     7
 10
375.003348674976
 20
-8.653130415138
 11
374.970861424542
 21
-6.525498009539
 12
375.003348674976
 22
-6.525498009539
 13
375.003348674976
 23
-6.525498009539
  0
SOLID
  8
図面枠
  6
CONTINUOUS
 62
     7
 10
375.003348674976
 20
-8.653130415138
 11
375.003348674976
 21
-8.403472957998
 12
375.039508397199
 22
-8.653130415138
 13
375.039508397199
 23
-8.653130415138
  0
SOLID
  8
図面枠
  6
CONTINUOUS
 62
     7
 10
375.039508397199
 20
-8.653130415138
 11
375.003348674976
 21
-8.403472957998
 12
375.039508397199
 22
-8.44161821935
 13
375.039508397199
 23
-8.44161821935
  0
SOLID
  8
図面枠
  6
CONTINUOUS
 62
     7
 10
375.003348674976
 20
-7.545880170997
 11
375.003348674976
 21
-7.241983130524
 12
375.039508397199
 22
-7.462684560103
 13
375.039508397199
 23
-7.462684560103
  0
SOLID
  8
図面枠
  6
CONTINUOUS
 62
     7
 10
375.039508397199
 20
-8.653130415138
 11
375.039508397199
 21
-8.44161821935
 12
375.137111397416
 22
-8.653130415138
 13
375.137111397416
 23
-8.653130415138
  0
SOLID
  8
図面枠
  6
CONTINUOUS
 62
     7
 10
375.137111397416
 20
-8.653130415138
 11
375.039508397199
 21
-8.44161821935
 12
375.137111397416
 22
-8.544580624014
 13
375.137111397416
 23
-8.544580624014
  0
SOLID
  8
図面枠
  6
CONTINUOUS
 62
     7
 10
375.137111397416
 20
-8.653130415138
 11
375.137111397416
 21
-8.544580624014
 12
375.147987563865
 22
-8.653130415138
 13
375.147987563865
 23
-8.653130415138
  0
SOLID
  8
図面枠
  6
CONTINUOUS
 62
     7
 10
375.147987563865
 20
-8.653130415138
 11
375.137111397416
 21
-8.544580624014
 12
375.147987563865
 22
-8.548182471344
 13
375.147987563865
 23
-8.548182471344
  0
SOLID
  8
図面枠
  6
CONTINUOUS
 62
     7
 10
375.147987563865
 20
-8.653130415138
 11
375.147987563865
 21
-8.548182471344
 12
375.487832453188
 22
-8.653130415138
 13
375.487832453188
 23
-8.653130415138
  0
SOLID
  8
図面枠
  6
CONTINUOUS
 62
     7
 10
375.487832453188
 20
-8.653130415138
 11
375.147987563865
 21
-8.548182471344
 12
375.487832453188
 22
-8.548182471344
 13
375.487832453188
 23
-8.548182471344
  0
ENDBLK
  8
0
  0
BLOCK
  8
0
  2
*U21
 70
     1
 10
0.0
 20
0.0
  0
SOLID
  8
図面枠
  6
CONTINUOUS
 62
     7
 10
379.648601740297
 20
-6.786031633128
 11
379.648601740297
 21
-6.731792049795
 12
379.68476146252
 22
-7.014007381826
 13
379.68476146252
 23
-7.014007381826
  0
SOLID
  8
図面枠
  6
CONTINUOUS
 62
     7
 10
379.68476146252
 20
-7.014007381826
 11
379.648601740297
 21
-6.731792049795
 12
379.68476146252
 22
-6.717314036014
 13
379.68476146252
 23
-6.717314036014
  0
SOLID
  8
図面枠
  6
CONTINUOUS
 62
     7
 10
379.68476146252
 20
-7.021211076487
 11
379.68476146252
 21
-6.717314036014
 12
379.757080906964
 22
-7.019060469102
 13
379.757080906964
 23
-7.019060469102
  0
SOLID
  8
図面枠
  6
CONTINUOUS
 62
     7
 10
379.757080906964
 20
-7.019060469102
 11
379.68476146252
 21
-6.717314036014
 12
379.757080906964
 22
-6.938015465593
 13
379.757080906964
 23
-6.938015465593
  0
SOLID
  8
図面枠
  6
CONTINUOUS
 62
     7
 10
379.757080906964
 20
-7.019060469102
 11
379.757080906964
 21
-6.938015465593
 12
379.782364462737
 22
-7.018308596598
 13
379.782364462737
 23
-7.018308596598
  0
SOLID
  8
図面枠
  6
CONTINUOUS
 62
     7
 10
379.782364462737
 20
-7.018308596598
 11
379.757080906964
 21
-6.938015465593
 12
379.782364462737
 22
-6.970573340485
 13
379.782364462737
 23
-6.970573340485
  0
SOLID
  8
図面枠
  6
CONTINUOUS
 62
     7
 10
379.782364462737
 20
-7.018308596598
 11
379.782364462737
 21
-6.970573340485
 12
379.919799656964
 22
-7.014221602484
 13
379.919799656964
 23
-7.014221602484
  0
SOLID
  8
図面枠
  6
CONTINUOUS
 62
     7
 10
379.919799656964
 20
-7.014221602484
 11
379.782364462737
 21
-6.970573340485
 12
379.919799656964
 22
-7.014007381826
 13
379.919799656964
 23
-7.014007381826
  0
SOLID
  8
図面枠
  6
CONTINUOUS
 62
     7
 10
379.919799656964
 20
-7.014221602484
 11
379.919799656964
 21
-7.014007381826
 12
379.927003351626
 22
-7.014007381826
 13
379.927003351626
 23
-7.014007381826
  0
ENDBLK
  8
0
  0
BLOCK
  8
0
  2
*U22
 70
     1
 10
0.0
 20
0.0
  0
SOLID
  8
図面枠
  6
CONTINUOUS
 62
     7
 10
378.979788128101
 20
-5.71488097007
 11
378.969053210567
 21
-5.704135569218
 12
378.979788128101
 22
-5.657099680546
 13
378.979788128101
 23
-5.657099680546
  0
SOLID
  8
図面枠
  6
CONTINUOUS
 62
     7
 10
378.979788128101
 20
-5.71488097007
 11
378.979788128101
 21
-5.657099680546
 12
379.041372655011
 22
-5.776525638119
 13
379.041372655011
 23
-5.776525638119
  0
SOLID
  8
図面枠
  6
CONTINUOUS
 62
     7
 10
379.041372655011
 20
-5.776525638119
 11
378.979788128101
 21
-5.657099680546
 12
379.041372655011
 22
-5.683107382231
 13
379.041372655011
 23
-5.683107382231
  0
SOLID
  8
図面枠
  6
CONTINUOUS
 62
     7
 10
379.041372655011
 20
-5.776525638119
 11
379.041372655011
 21
-5.683107382231
 12
379.138975655228
 22
-5.928509470585
 13
379.138975655228
 23
-5.928509470585
  0
SOLID
  8
図面枠
  6
CONTINUOUS
 62
     7
 10
379.138975655228
 20
-5.928509470585
 11
379.041372655011
 21
-5.683107382231
 12
379.138975655228
 22
-5.724326010361
 13
379.138975655228
 23
-5.724326010361
  0
SOLID
  8
図面枠
  6
CONTINUOUS
 62
     7
 10
379.138975655228
 20
-5.928509470585
 11
379.138975655228
 21
-5.724326010361
 12
379.142506878101
 22
-5.935765407995
 13
379.142506878101
 23
-5.935765407995
  0
SOLID
  8
図面枠
  6
CONTINUOUS
 62
     7
 10
379.142506878101
 20
-5.935765407995
 11
379.138975655228
 21
-5.724326010361
 12
379.142506878101
 22
-5.725817277659
 13
379.142506878101
 23
-5.725817277659
  0
SOLID
  8
図面枠
  6
CONTINUOUS
 62
     7
 10
379.142506878101
 20
-5.935765407995
 11
379.142506878101
 21
-5.725817277659
 12
379.211153850758
 22
-6.076820831262
 13
379.211153850758
 23
-6.076820831262
  0
SOLID
  8
図面枠
  6
CONTINUOUS
 62
     7
 10
379.211153850758
 20
-6.076820831262
 11
379.142506878101
 21
-5.725817277659
 12
379.211153850758
 22
-5.789629282228
 13
379.211153850758
 23
-5.789629282228
  0
SOLID
  8
図面枠
  6
CONTINUOUS
 62
     7
 10
379.211153850758
 20
-6.076820831262
 11
379.211153850758
 21
-5.789629282228
 12
379.243782350107
 22
-6.094239691591
 13
379.243782350107
 23
-6.094239691591
  0
SOLID
  8
図面枠
  6
CONTINUOUS
 62
     7
 10
379.243782350107
 20
-6.094239691591
 11
379.211153850758
 21
-5.789629282228
 12
379.243782350107
 22
-5.819959679461
 13
379.243782350107
 23
-5.819959679461
  0
SOLID
  8
図面枠
  6
CONTINUOUS
 62
     7
 10
379.243782350107
 20
-6.094239691591
 11
379.243782350107
 21
-5.819959679461
 12
379.254658516556
 22
-6.100045978368
 13
379.254658516556
 23
-6.100045978368
  0
SOLID
  8
図面枠
  6
CONTINUOUS
 62
     7
 10
379.254658516556
 20
-6.100045978368
 11
379.243782350107
 21
-5.819959679461
 12
379.254658516556
 22
-5.838039540572
 13
379.254658516556
 23
-5.838039540572
  0
SOLID
  8
図面枠
  6
CONTINUOUS
 62
     7
 10
379.254658516556
 20
-6.100045978368
 11
379.254658516556
 21
-5.838039540572
 12
379.265393434091
 22
-6.105776858823
 13
379.265393434091
 23
-6.105776858823
  0
SOLID
  8
図面枠
  6
CONTINUOUS
 62
     7
 10
379.265393434091
 20
-6.105776858823
 11
379.254658516556
 21
-5.838039540572
 12
379.265393434091
 22
-5.876088236533
 13
379.265393434091
 23
-5.876088236533
  0
SOLID
  8
図面枠
  6
CONTINUOUS
 62
     7
 10
379.265393434091
 20
-6.105776858823
 11
379.265393434091
 21
-5.876088236533
 12
379.308756850975
 22
-6.02978494259
 13
379.308756850975
 23
-6.02978494259
  0
ENDBLK
  8
0
  0
BLOCK
  8
0
  2
*U23
 70
     1
 10
0.0
 20
0.0
  0
SOLID
  8
図面枠
  6
CONTINUOUS
 62
     7
 10
378.524401626365
 20
-6.542203873503
 11
378.506321765254
 21
-6.521896162208
 12
378.524401626365
 22
-6.478462120867
 13
378.524401626365
 23
-6.478462120867
  0
SOLID
  8
図面枠
  6
CONTINUOUS
 62
     7
 10
378.524401626365
 20
-6.542203873503
 11
378.524401626365
 21
-6.478462120867
 12
378.625535849456
 22
-6.655800133562
 13
378.625535849456
 23
-6.655800133562
  0
SOLID
  8
図面枠
  6
CONTINUOUS
 62
     7
 10
378.625535849456
 20
-6.655800133562
 11
378.524401626365
 21
-6.478462120867
 12
378.625535849456
 22
-6.549953554431
 13
378.625535849456
 23
-6.549953554431
  0
SOLID
  8
図面枠
  6
CONTINUOUS
 62
     7
 10
378.625535849456
 20
-6.655800133562
 11
378.625535849456
 21
-6.549953554431
 12
378.647288182355
 22
-6.683687739843
 13
378.647288182355
 23
-6.683687739843
  0
SOLID
  8
図面枠
  6
CONTINUOUS
 62
     7
 10
378.647288182355
 20
-6.683687739843
 11
378.625535849456
 21
-6.549953554431
 12
378.647288182355
 22
-6.565330203549
 13
378.647288182355
 23
-6.565330203549
  0
SOLID
  8
図面枠
  6
CONTINUOUS
 62
     7
 10
378.647288182355
 20
-6.683687739843
 11
378.647288182355
 21
-6.565330203549
 12
378.741218710784
 22
-6.804111494239
 13
378.741218710784
 23
-6.804111494239
  0
SOLID
  8
図面枠
  6
CONTINUOUS
 62
     7
 10
378.741218710784
 20
-6.804111494239
 11
378.647288182355
 21
-6.565330203549
 12
378.741218710784
 22
-6.651240993781
 13
378.741218710784
 23
-6.651240993781
  0
SOLID
  8
図面枠
  6
CONTINUOUS
 62
     7
 10
378.741218710784
 20
-6.804111494239
 11
378.741218710784
 21
-6.651240993781
 12
378.773847210133
 22
-6.853076996749
 13
378.773847210133
 23
-6.853076996749
  0
SOLID
  8
図面枠
  6
CONTINUOUS
 62
     7
 10
378.773847210133
 20
-6.853076996749
 11
378.741218710784
 21
-6.651240993781
 12
378.773847210133
 22
-6.681083689335
 13
378.773847210133
 23
-6.681083689335
  0
SOLID
  8
図面枠
  6
CONTINUOUS
 62
     7
 10
378.773847210133
 20
-6.853076996749
 11
378.773847210133
 21
-6.681083689335
 12
378.835290488127
 22
-6.945284761215
 13
378.835290488127
 23
-6.945284761215
  0
SOLID
  8
図面枠
  6
CONTINUOUS
 62
     7
 10
378.835290488127
 20
-6.945284761215
 11
378.773847210133
 21
-6.681083689335
 12
378.835290488127
 22
-6.746270063575
 13
378.835290488127
 23
-6.746270063575
  0
SOLID
  8
図面枠
  6
CONTINUOUS
 62
     7
 10
378.835290488127
 20
-6.945284761215
 11
378.835290488127
 21
-6.746270063575
 12
378.842494182789
 22
-6.956095326704
 13
378.842494182789
 23
-6.956095326704
  0
SOLID
  8
図面枠
  6
CONTINUOUS
 62
     7
 10
378.842494182789
 20
-6.956095326704
 11
378.835290488127
 21
-6.746270063575
 12
378.842494182789
 22
-6.755125944903
 13
378.842494182789
 23
-6.755125944903
  0
SOLID
  8
図面枠
  6
CONTINUOUS
 62
     7
 10
378.842494182789
 20
-6.956095326704
 11
378.842494182789
 21
-6.755125944903
 12
378.932893488344
 22
-7.118955325619
 13
378.932893488344
 23
-7.118955325619
  0
SOLID
  8
図面枠
  6
CONTINUOUS
 62
     7
 10
378.932893488344
 20
-7.118955325619
 11
378.842494182789
 21
-6.755125944903
 12
378.932893488344
 22
-6.866258573329
 13
378.932893488344
 23
-6.866258573329
  0
SOLID
  8
図面枠
  6
CONTINUOUS
 62
     7
 10
378.932893488344
 20
-7.118955325619
 11
378.932893488344
 21
-6.866258573329
 12
378.943769654794
 22
-7.1334333394
 13
378.943769654794
 23
-7.1334333394
  0
SOLID
  8
図面枠
  6
CONTINUOUS
 62
     7
 10
378.943769654794
 20
-7.1334333394
 11
378.932893488344
 21
-6.866258573329
 12
378.943769654794
 22
-6.879629217686
 13
378.943769654794
 23
-6.879629217686
  0
SOLID
  8
図面枠
  6
CONTINUOUS
 62
     7
 10
378.943769654794
 20
-7.1334333394
 11
378.943769654794
 21
-6.879629217686
 12
378.961849515905
 22
-7.171842434014
 13
378.961849515905
 23
-7.171842434014
  0
SOLID
  8
図面枠
  6
CONTINUOUS
 62
     7
 10
378.961849515905
 20
-7.171842434014
 11
378.943769654794
 21
-6.879629217686
 12
378.961849515905
 22
-6.901855743371
 13
378.961849515905
 23
-6.901855743371
  0
SOLID
  8
図面枠
  6
CONTINUOUS
 62
     7
 10
378.961849515905
 20
-7.171842434014
 11
378.961849515905
 21
-6.901855743371
 12
379.034027711435
 22
-7.325178741418
 13
379.034027711435
 23
-7.325178741418
  0
SOLID
  8
図面枠
  6
CONTINUOUS
 62
     7
 10
379.034027711435
 20
-7.325178741418
 11
378.961849515905
 21
-6.901855743371
 12
379.034027711435
 22
-7.00513306365
 13
379.034027711435
 23
-7.00513306365
  0
SOLID
  8
図面枠
  6
CONTINUOUS
 62
     7
 10
379.034027711435
 20
-7.325178741418
 11
379.034027711435
 21
-7.00513306365
 12
379.062983738995
 22
-7.404864371951
 13
379.062983738995
 23
-7.404864371951
  0
SOLID
  8
図面枠
  6
CONTINUOUS
 62
     7
 10
379.062983738995
 20
-7.404864371951
 11
379.034027711435
 21
-7.00513306365
 12
379.062983738995
 22
-7.046565256718
 13
379.062983738995
 23
-7.046565256718
  0
SOLID
  8
図面枠
  6
CONTINUOUS
 62
     7
 10
379.062983738995
 20
-7.404864371951
 11
379.062983738995
 21
-7.046565256718
 12
379.084736071895
 22
-7.46472577245
 13
379.084736071895
 23
-7.46472577245
  0
SOLID
  8
図面枠
  6
CONTINUOUS
 62
     7
 10
379.084736071895
 20
-7.46472577245
 11
379.062983738995
 21
-7.046565256718
 12
379.084736071895
 22
-7.089999298059
 13
379.084736071895
 23
-7.089999298059
  0
SOLID
  8
図面枠
  6
CONTINUOUS
 62
     7
 10
379.084736071895
 20
-7.46472577245
 11
379.084736071895
 21
-7.089999298059
 12
379.106347155879
 22
-7.524198462555
 13
379.106347155879
 23
-7.524198462555
  0
SOLID
  8
図面枠
  6
CONTINUOUS
 62
     7
 10
379.106347155879
 20
-7.524198462555
 11
379.084736071895
 21
-7.089999298059
 12
379.106347155879
 22
-7.129433489714
 13
379.106347155879
 23
-7.129433489714
  0
SOLID
  8
図面枠
  6
CONTINUOUS
 62
     7
 10
379.106347155879
 20
-7.524198462555
 11
379.106347155879
 21
-7.129433489714
 12
379.167790433874
 22
-7.730421878354
 13
379.167790433874
 23
-7.730421878354
  0
SOLID
  8
図面枠
  6
CONTINUOUS
 62
     7
 10
379.167790433874
 20
-7.730421878354
 11
379.106347155879
 21
-7.129433489714
 12
379.167790433874
 22
-7.241550309128
 13
379.167790433874
 23
-7.241550309128
  0
SOLID
  8
図面枠
  6
CONTINUOUS
 62
     7
 10
379.167790433874
 20
-7.730421878354
 11
379.167790433874
 21
-7.241550309128
 12
379.185870294985
 22
-7.755278012613
 13
379.185870294985
 23
-7.755278012613
  0
SOLID
  8
図面枠
  6
CONTINUOUS
 62
     7
 10
379.185870294985
 20
-7.755278012613
 11
379.167790433874
 21
-7.241550309128
 12
379.185870294985
 22
-7.274541005415
 13
379.185870294985
 23
-7.274541005415
  0
SOLID
  8
図面枠
  6
CONTINUOUS
 62
     7
 10
379.185870294985
 20
-7.755278012613
 11
379.185870294985
 21
-7.274541005415
 12
379.254658516556
 22
-7.849847835928
 13
379.254658516556
 23
-7.849847835928
  0
SOLID
  8
図面枠
  6
CONTINUOUS
 62
     7
 10
379.254658516556
 20
-7.849847835928
 11
379.185870294985
 21
-7.274541005415
 12
379.254658516556
 22
-7.433728532542
 13
379.254658516556
 23
-7.433728532542
  0
SOLID
  8
図面枠
  6
CONTINUOUS
 62
     7
 10
379.254658516556
 20
-7.849847835928
 11
379.254658516556
 21
-7.433728532542
 12
379.305225628101
 22
-7.738217306394
 13
379.305225628101
 23
-7.738217306394
  0
SOLID
  8
図面枠
  6
CONTINUOUS
 62
     7
 10
379.305225628101
 20
-7.738217306394
 11
379.254658516556
 21
-7.433728532542
 12
379.305225628101
 22
-7.654429962121
 13
379.305225628101
 23
-7.654429962121
  0
SOLID
  8
図面枠
  6
CONTINUOUS
 62
     7
 10
379.305225628101
 20
-7.738217306394
 11
379.305225628101
 21
-7.654429962121
 12
379.308756850975
 22
-7.730421878354
 13
379.308756850975
 23
-7.730421878354
  0
ENDBLK
  8
0
  0
BLOCK
  8
0
  2
*U24
 70
     1
 10
0.0
 20
0.0
  0
SOLID
  8
図面枠
  6
CONTINUOUS
 62
     7
 10
378.766643515471
 20
-6.002308181773
 11
378.755767349021
 21
-5.986350901249
 12
378.766643515471
 22
-5.942916859908
 13
378.766643515471
 23
-5.942916859908
  0
SOLID
  8
図面枠
  6
CONTINUOUS
 62
     7
 10
378.766643515471
 20
-6.002308181773
 11
378.766643515471
 21
-5.942916859908
 12
378.856901572112
 22
-6.134732886383
 13
378.856901572112
 23
-6.134732886383
  0
SOLID
  8
図面枠
  6
CONTINUOUS
 62
     7
 10
378.856901572112
 20
-6.134732886383
 11
378.766643515471
 21
-5.942916859908
 12
378.856901572112
 22
-6.001428979385
 13
378.856901572112
 23
-6.001428979385
  0
SOLID
  8
図面枠
  6
CONTINUOUS
 62
     7
 10
378.856901572112
 20
-6.134732886383
 11
378.856901572112
 21
-6.001428979385
 12
378.889530071461
 22
-6.192226970738
 13
378.889530071461
 23
-6.192226970738
  0
SOLID
  8
図面枠
  6
CONTINUOUS
 62
     7
 10
378.889530071461
 20
-6.192226970738
 11
378.856901572112
 21
-6.001428979385
 12
378.889530071461
 22
-6.022581247928
 13
378.889530071461
 23
-6.022581247928
  0
SOLID
  8
図面枠
  6
CONTINUOUS
 62
     7
 10
378.889530071461
 20
-6.192226970738
 11
378.889530071461
 21
-6.022581247928
 12
378.932893488344
 22
-6.268636857737
 13
378.932893488344
 23
-6.268636857737
  0
SOLID
  8
図面枠
  6
CONTINUOUS
 62
     7
 10
378.932893488344
 20
-6.268636857737
 11
378.889530071461
 21
-6.022581247928
 12
378.932893488344
 22
-6.063632254514
 13
378.932893488344
 23
-6.063632254514
  0
SOLID
  8
図面枠
  6
CONTINUOUS
 62
     7
 10
378.932893488344
 20
-6.268636857737
 11
378.932893488344
 21
-6.063632254514
 12
378.965380738778
 22
-6.348230621301
 13
378.965380738778
 23
-6.348230621301
  0
SOLID
  8
図面枠
  6
CONTINUOUS
 62
     7
 10
378.965380738778
 20
-6.348230621301
 11
378.932893488344
 21
-6.063632254514
 12
378.965380738778
 22
-6.094387080294
 13
378.965380738778
 23
-6.094387080294
  0
SOLID
  8
図面枠
  6
CONTINUOUS
 62
     7
 10
378.965380738778
 20
-6.348230621301
 11
378.965380738778
 21
-6.094387080294
 12
379.0232927939
 22
-6.435193023291
 13
379.0232927939
 23
-6.435193023291
  0
SOLID
  8
図面枠
  6
CONTINUOUS
 62
     7
 10
379.0232927939
 20
-6.435193023291
 11
378.965380738778
 21
-6.094387080294
 12
379.0232927939
 22
-6.149210900164
 13
379.0232927939
 23
-6.149210900164
  0
SOLID
  8
図面枠
  6
CONTINUOUS
 62
     7
 10
379.0232927939
 20
-6.435193023291
 11
379.0232927939
 21
-6.149210900164
 12
379.052107572546
 22
-6.478462120867
 13
379.052107572546
 23
-6.478462120867
  0
SOLID
  8
図面枠
  6
CONTINUOUS
 62
     7
 10
379.052107572546
 20
-6.478462120867
 11
379.0232927939
 21
-6.149210900164
 12
379.052107572546
 22
-6.214773478219
 13
379.052107572546
 23
-6.214773478219
  0
SOLID
  8
図面枠
  6
CONTINUOUS
 62
     7
 10
379.052107572546
 20
-6.478462120867
 11
379.052107572546
 21
-6.214773478219
 12
379.102815933006
 22
-6.373514177073
 13
379.102815933006
 23
-6.373514177073
  0
SOLID
  8
図面枠
  6
CONTINUOUS
 62
     7
 10
379.102815933006
 20
-6.373514177073
 11
379.052107572546
 21
-6.214773478219
 12
379.102815933006
 22
-6.33015076019
 13
379.102815933006
 23
-6.33015076019
  0
ENDBLK
  8
0
  0
BLOCK
  8
0
  2
*U25
 70
     1
 10
0.0
 20
0.0
  0
SOLID
  8
図面枠
  6
CONTINUOUS
 62
     7
 10
384.807153362476
 20
-8.270945849645
 11
384.774666112042
 21
-8.269568986644
 12
384.807153362476
 22
-8.265967139313
 13
384.807153362476
 23
-8.265967139313
  0
SOLID
  8
図面枠
  6
CONTINUOUS
 62
     7
 10
384.807153362476
 20
-8.270945849645
 11
384.807153362476
 21
-8.265967139313
 12
384.825233223587
 22
-8.271712103838
 13
384.825233223587
 23
-8.271712103838
  0
SOLID
  8
図面枠
  6
CONTINUOUS
 62
     7
 10
384.825233223587
 20
-8.271712103838
 11
384.807153362476
 21
-8.265967139313
 12
384.825233223587
 22
-8.263920488369
 13
384.825233223587
 23
-8.263920488369
  0
SOLID
  8
図面枠
  6
CONTINUOUS
 62
     7
 10
384.825233223587
 20
-8.271712103838
 11
384.825233223587
 21
-8.263920488369
 12
384.843313084699
 22
-8.27247835803
 13
384.843313084699
 23
-8.27247835803
  0
SOLID
  8
図面枠
  6
CONTINUOUS
 62
     7
 10
384.843313084699
 20
-8.27247835803
 11
384.825233223587
 21
-8.263920488369
 12
384.843313084699
 22
-8.261873837424
 13
384.843313084699
 23
-8.261873837424
  0
SOLID
  8
図面枠
  6
CONTINUOUS
 62
     7
 10
384.843313084699
 20
-7.495536447519
 11
384.825233223587
 21
-7.495242434994
 12
384.843313084699
 22
-7.491640587664
 13
384.843313084699
 23
-7.491640587664
  0
SOLID
  8
図面枠
  6
CONTINUOUS
 62
     7
 10
384.843313084699
 20
-8.27247835803
 11
384.843313084699
 21
-8.261873837424
 12
384.998686891122
 22
-8.279063354994
 13
384.998686891122
 23
-8.279063354994
  0
SOLID
  8
図面枠
  6
CONTINUOUS
 62
     7
 10
384.998686891122
 20
-8.279063354994
 11
384.843313084699
 21
-8.261873837424
 12
384.998686891122
 22
-8.244285430871
 13
384.998686891122
 23
-8.244285430871
  0
SOLID
  8
図面枠
  6
CONTINUOUS
 62
     7
 10
384.843313084699
 20
-7.495536447519
 11
384.843313084699
 21
-7.491640587664
 12
384.998686891122
 22
-7.498063117656
 13
384.998686891122
 23
-7.498063117656
  0
SOLID
  8
図面枠
  6
CONTINUOUS
 62
     7
 10
384.998686891122
 20
-7.498063117656
 11
384.843313084699
 21
-7.491640587664
 12
384.998686891122
 22
-7.476062745093
 13
384.998686891122
 23
-7.476062745093
  0
SOLID
  8
図面枠
  6
CONTINUOUS
 62
     7
 10
384.998686891122
 20
-8.279063354994
 11
384.998686891122
 21
-8.244285430871
 12
385.060271418032
 22
-8.281673408336
 13
385.060271418032
 23
-8.281673408336
  0
SOLID
  8
図面枠
  6
CONTINUOUS
 62
     7
 10
385.060271418032
 20
-8.281673408336
 11
384.998686891122
 21
-8.244285430871
 12
385.060271418032
 22
-8.2360527771
 13
385.060271418032
 23
-8.2360527771
  0
SOLID
  8
図面枠
  6
CONTINUOUS
 62
     7
 10
384.998686891122
 20
-7.498063117656
 11
384.998686891122
 21
-7.476062745093
 12
385.060271418032
 22
-7.499064597819
 13
385.060271418032
 23
-7.499064597819
  0
SOLID
  8
図面枠
  6
CONTINUOUS
 62
     7
 10
385.060271418032
 20
-7.499064597819
 11
384.998686891122
 21
-7.476062745093
 12
385.060271418032
 22
-7.469888254764
 13
385.060271418032
 23
-7.469888254764
  0
SOLID
  8
図面枠
  6
CONTINUOUS
 62
     7
 10
385.060271418032
 20
-8.281673408336
 11
385.060271418032
 21
-8.2360527771
 12
385.161405641122
 22
-8.285959642724
 13
385.161405641122
 23
-8.285959642724
  0
SOLID
  8
図面枠
  6
CONTINUOUS
 62
     7
 10
385.161405641122
 20
-8.285959642724
 11
385.060271418032
 21
-8.2360527771
 12
385.161405641122
 22
-8.222533097972
 13
385.161405641122
 23
-8.222533097972
  0
SOLID
  8
図面枠
  6
CONTINUOUS
 62
     7
 10
385.060271418032
 20
-7.499064597819
 11
385.060271418032
 21
-7.469888254764
 12
385.161405641122
 22
-7.50070923038
 13
385.161405641122
 23
-7.50070923038
  0
SOLID
  8
図面枠
  6
CONTINUOUS
 62
     7
 10
385.161405641122
 20
-7.50070923038
 11
385.060271418032
 21
-7.469888254764
 12
385.161405641122
 22
-7.457508587105
 13
385.161405641122
 23
-7.457508587105
  0
SOLID
  8
図面枠
  6
CONTINUOUS
 62
     7
 10
385.161405641122
 20
-8.285959642724
 11
385.161405641122
 21
-8.222533097972
 12
385.237397557355
 22
-8.289180304876
 13
385.237397557355
 23
-8.289180304876
  0
SOLID
  8
図面枠
  6
CONTINUOUS
 62
     7
 10
385.237397557355
 20
-8.289180304876
 11
385.161405641122
 21
-8.222533097972
 12
385.237397557355
 22
-8.212536216905
 13
385.237397557355
 23
-8.212536216905
  0
SOLID
  8
図面枠
  6
CONTINUOUS
 62
     7
 10
385.161405641122
 20
-7.50070923038
 11
385.161405641122
 21
-7.457508587105
 12
385.237397557355
 22
-7.501945001774
 13
385.237397557355
 23
-7.501945001774
  0
SOLID
  8
図面枠
  6
CONTINUOUS
 62
     7
 10
385.237397557355
 20
-7.501945001774
 11
385.161405641122
 21
-7.457508587105
 12
385.237397557355
 22
-7.448206546323
 13
385.237397557355
 23
-7.448206546323
  0
SOLID
  8
図面枠
  6
CONTINUOUS
 62
     7
 10
385.237397557355
 20
-8.289180304876
 11
385.237397557355
 21
-8.212536216905
 12
385.29884083535
 22
-8.291784371857
 13
385.29884083535
 23
-8.291784371857
  0
SOLID
  8
図面枠
  6
CONTINUOUS
 62
     7
 10
385.29884083535
 20
-8.291784371857
 11
385.237397557355
 21
-8.212536216905
 12
385.29884083535
 22
-8.204453236861
 13
385.29884083535
 23
-8.204453236861
  0
SOLID
  8
図面枠
  6
CONTINUOUS
 62
     7
 10
385.237397557355
 20
-7.501945001774
 11
385.237397557355
 21
-7.448206546323
 12
385.29884083535
 22
-7.502944184964
 13
385.29884083535
 23
-7.502944184964
  0
SOLID
  8
図面枠
  6
CONTINUOUS
 62
     7
 10
385.29884083535
 20
-7.502944184964
 11
385.237397557355
 21
-7.448206546323
 12
385.29884083535
 22
-7.441549108696
 13
385.29884083535
 23
-7.441549108696
  0
SOLID
  8
図面枠
  6
CONTINUOUS
 62
     7
 10
385.29884083535
 20
-8.291784371857
 11
385.29884083535
 21
-8.204453236861
 12
385.371019030879
 22
-8.294843402265
 13
385.371019030879
 23
-8.294843402265
  0
SOLID
  8
図面枠
  6
CONTINUOUS
 62
     7
 10
385.371019030879
 20
-8.294843402265
 11
385.29884083535
 21
-8.204453236861
 12
385.371019030879
 22
-8.192802784114
 13
385.371019030879
 23
-8.192802784114
  0
SOLID
  8
図面枠
  6
CONTINUOUS
 62
     7
 10
385.29884083535
 20
-7.502944184964
 11
385.29884083535
 21
-7.441549108696
 12
385.371019030879
 22
-7.504117938091
 13
385.371019030879
 23
-7.504117938091
  0
SOLID
  8
図面枠
  6
CONTINUOUS
 62
     7
 10
385.371019030879
 20
-7.504117938091
 11
385.29884083535
 21
-7.441549108696
 12
385.371019030879
 22
-7.433728532542
 13
385.371019030879
 23
-7.433728532542
  0
SOLID
  8
図面枠
  6
CONTINUOUS
 62
     7
 10
385.371019030879
 20
-8.294843402265
 11
385.371019030879
 21
-8.192802784114
 12
385.41085122489
 22
-8.296531556033
 13
385.41085122489
 23
-8.296531556033
  0
SOLID
  8
図面枠
  6
CONTINUOUS
 62
     7
 10
385.41085122489
 20
-8.296531556033
 11
385.371019030879
 21
-8.192802784114
 12
385.41085122489
 22
-8.18637337575
 13
385.41085122489
 23
-8.18637337575
  0
SOLID
  8
図面枠
  6
CONTINUOUS
 62
     7
 10
385.371019030879
 20
-7.504117938091
 11
385.371019030879
 21
-7.433728532542
 12
385.41085122489
 22
-7.504765684435
 13
385.41085122489
 23
-7.504765684435
  0
SOLID
  8
図面枠
  6
CONTINUOUS
 62
     7
 10
385.41085122489
 20
-7.504765684435
 11
385.371019030879
 21
-7.433728532542
 12
385.41085122489
 22
-7.4289362217
 13
385.41085122489
 23
-7.4289362217
  0
SOLID
  8
図面枠
  6
CONTINUOUS
 62
     7
 10
385.41085122489
 20
-8.296531556033
 11
385.41085122489
 21
-8.18637337575
 12
385.457887113561
 22
-8.298525014204
 13
385.457887113561
 23
-8.298525014204
  0
SOLID
  8
図面枠
  6
CONTINUOUS
 62
     7
 10
385.457887113561
 20
-8.298525014204
 11
385.41085122489
 21
-8.18637337575
 12
385.457887113561
 22
-8.181118824195
 13
385.457887113561
 23
-8.181118824195
  0
SOLID
  8
図面枠
  6
CONTINUOUS
 62
     7
 10
385.41085122489
 20
-7.504765684435
 11
385.41085122489
 21
-7.4289362217
 12
385.457887113561
 22
-7.505530576394
 13
385.457887113561
 23
-7.505530576394
  0
SOLID
  8
図面枠
  6
CONTINUOUS
 62
     7
 10
385.457887113561
 20
-7.505530576394
 11
385.41085122489
 21
-7.4289362217
 12
385.457887113561
 22
-7.423277216344
 13
385.457887113561
 23
-7.423277216344
  0
SOLID
  8
図面枠
  6
CONTINUOUS
 62
     7
 10
385.457887113561
 20
-8.305799333323
 11
385.457887113561
 21
-8.181118824195
 12
385.461418336435
 22
-8.314741039059
 13
385.461418336435
 23
-8.314741039059
  0
SOLID
  8
図面枠
  6
CONTINUOUS
 62
     7
 10
385.461418336435
 20
-8.314741039059
 11
385.457887113561
 21
-8.181118824195
 12
385.461418336435
 22
-8.180724338343
 13
385.461418336435
 23
-8.180724338343
  0
SOLID
  8
図面枠
  6
CONTINUOUS
 62
     7
 10
385.457887113561
 20
-7.505530576394
 11
385.457887113561
 21
-7.423277216344
 12
385.461418336435
 22
-7.505588000715
 13
385.461418336435
 23
-7.505588000715
  0
SOLID
  8
図面枠
  6
CONTINUOUS
 62
     7
 10
385.461418336435
 20
-7.505588000715
 11
385.457887113561
 21
-7.423277216344
 12
385.461418336435
 22
-7.422852366093
 13
385.461418336435
 23
-7.422852366093
  0
SOLID
  8
図面枠
  6
CONTINUOUS
 62
     7
 10
385.461418336435
 20
-8.314741039059
 11
385.461418336435
 21
-8.180724338343
 12
385.475966974673
 22
-8.351580866689
 13
385.475966974673
 23
-8.351580866689
  0
SOLID
  8
図面枠
  6
CONTINUOUS
 62
     7
 10
385.475966974673
 20
-8.351580866689
 11
385.461418336435
 21
-8.180724338343
 12
385.475966974673
 22
-8.179099056631
 13
385.475966974673
 23
-8.179099056631
  0
SOLID
  8
図面枠
  6
CONTINUOUS
 62
     7
 10
385.461418336435
 20
-7.505588000715
 11
385.461418336435
 21
-7.422852366093
 12
385.475966974673
 22
-7.505824588919
 13
385.475966974673
 23
-7.505824588919
  0
SOLID
  8
図面枠
  6
CONTINUOUS
 62
     7
 10
385.475966974673
 20
-7.505824588919
 11
385.461418336435
 21
-7.422852366093
 12
385.475966974673
 22
-7.421246347586
 13
385.475966974673
 23
-7.421246347586
  0
SOLID
  8
図面枠
  6
CONTINUOUS
 62
     7
 10
385.475966974673
 20
-8.351580866689
 11
385.475966974673
 21
-8.179099056631
 12
385.483170669334
 22
-8.369821946389
 13
385.483170669334
 23
-8.369821946389
  0
SOLID
  8
図面枠
  6
CONTINUOUS
 62
     7
 10
385.483170669334
 20
-8.369821946389
 11
385.475966974673
 21
-8.179099056631
 12
385.483170669334
 22
-7.943919613271
 13
385.483170669334
 23
-7.943919613271
  0
SOLID
  8
図面枠
  6
CONTINUOUS
 62
     7
 10
385.475966974673
 20
-7.505824588919
 11
385.475966974673
 21
-7.421246347586
 12
385.483170669334
 22
-7.505941734535
 13
385.483170669334
 23
-7.505941734535
  0
SOLID
  8
図面枠
  6
CONTINUOUS
 62
     7
 10
385.483170669334
 20
-7.505941734535
 11
385.475966974673
 21
-7.421246347586
 12
385.483170669334
 22
-7.420451134539
 13
385.483170669334
 23
-7.420451134539
  0
SOLID
  8
図面枠
  6
CONTINUOUS
 62
     7
 10
385.483170669334
 20
-8.369821946389
 11
385.483170669334
 21
-7.943919613271
 12
385.490374363995
 22
-8.388063026089
 13
385.490374363995
 23
-8.388063026089
  0
SOLID
  8
図面枠
  6
CONTINUOUS
 62
     7
 10
385.490374363995
 20
-8.388063026089
 11
385.483170669334
 21
-7.943919613271
 12
385.490374363995
 22
-7.708740169912
 13
385.490374363995
 23
-7.708740169912
  0
SOLID
  8
図面枠
  6
CONTINUOUS
 62
     7
 10
385.483170669334
 20
-7.505941734535
 11
385.483170669334
 21
-7.420451134539
 12
385.490374363995
 22
-7.50605888015
 13
385.490374363995
 23
-7.50605888015
  0
SOLID
  8
図面枠
  6
CONTINUOUS
 62
     7
 10
385.490374363995
 20
-7.50605888015
 11
385.483170669334
 21
-7.420451134539
 12
385.490374363995
 22
-7.419655921492
 13
385.490374363995
 23
-7.419655921492
  0
SOLID
  8
図面枠
  6
CONTINUOUS
 62
     7
 10
385.490374363995
 20
-8.388063026089
 11
385.490374363995
 21
-7.708740169912
 12
385.494046835784
 22
-8.397362400054
 13
385.494046835784
 23
-8.397362400054
  0
SOLID
  8
図面枠
  6
CONTINUOUS
 62
     7
 10
385.494046835784
 20
-8.397362400054
 11
385.490374363995
 21
-7.708740169912
 12
385.494046835784
 22
-7.506118601444
 13
385.494046835784
 23
-7.506118601444
  0
SOLID
  8
図面枠
  6
CONTINUOUS
 62
     7
 10
385.490374363995
 20
-7.50605888015
 11
385.490374363995
 21
-7.419655921492
 12
385.494046835784
 22
-7.506118601444
 13
385.494046835784
 23
-7.506118601444
  0
SOLID
  8
図面枠
  6
CONTINUOUS
 62
     7
 10
385.494046835784
 20
-7.506118601444
 11
385.490374363995
 21
-7.419655921492
 12
385.494046835784
 22
-7.419250518762
 13
385.494046835784
 23
-7.419250518762
  0
SOLID
  8
図面枠
  6
CONTINUOUS
 62
     7
 10
385.494046835784
 20
-8.397362400054
 11
385.494046835784
 21
-6.836669369131
 12
385.519330391556
 22
-8.461385013119
 13
385.519330391556
 23
-8.461385013119
  0
SOLID
  8
図面枠
  6
CONTINUOUS
 62
     7
 10
385.519330391556
 20
-8.461385013119
 11
385.494046835784
 21
-6.836669369131
 12
385.519330391556
 22
-6.836669369131
 13
385.519330391556
 23
-6.836669369131
  0
SOLID
  8
図面枠
  6
CONTINUOUS
 62
     7
 10
385.519330391556
 20
-8.461385013119
 11
385.519330391556
 21
-6.836669369131
 12
385.573569974889
 22
-8.341959055546
 13
385.573569974889
 23
-8.341959055546
  0
SOLID
  8
図面枠
  6
CONTINUOUS
 62
     7
 10
385.573569974889
 20
-8.341959055546
 11
385.519330391556
 21
-6.836669369131
 12
385.573569974889
 22
-6.836669369131
 13
385.573569974889
 23
-6.836669369131
  0
SOLID
  8
図面枠
  6
CONTINUOUS
 62
     7
 10
385.573569974889
 20
-8.341959055546
 11
385.573569974889
 21
-6.836669369131
 12
385.577101197763
 22
-8.320277347104
 13
385.577101197763
 23
-8.320277347104
  0
SOLID
  8
図面枠
  6
CONTINUOUS
 62
     7
 10
385.577101197763
 20
-8.320277347104
 11
385.573569974889
 21
-6.836669369131
 12
385.577101197763
 22
-6.836669369131
 13
385.577101197763
 23
-6.836669369131
  0
SOLID
  8
図面枠
  6
CONTINUOUS
 62
     7
 10
385.577101197763
 20
-8.320277347104
 11
385.577101197763
 21
-6.836669369131
 12
385.584304892424
 22
-8.124859473297
 13
385.584304892424
 23
-8.124859473297
  0
SOLID
  8
図面枠
  6
CONTINUOUS
 62
     7
 10
385.584304892424
 20
-8.124859473297
 11
385.577101197763
 21
-6.836669369131
 12
385.584304892424
 22
-6.836669369131
 13
385.584304892424
 23
-6.836669369131
  0
SOLID
  8
図面枠
  6
CONTINUOUS
 62
     7
 10
385.584304892424
 20
-8.124859473297
 11
385.584304892424
 21
-6.836669369131
 12
385.591649836001
 22
-7.914963585711
 13
385.591649836001
 23
-7.914963585711
  0
SOLID
  8
図面枠
  6
CONTINUOUS
 62
     7
 10
385.591649836001
 20
-7.914963585711
 11
385.584304892424
 21
-6.836669369131
 12
385.591649836001
 22
-6.836669369131
 13
385.591649836001
 23
-6.836669369131
  0
SOLID
  8
図面枠
  6
CONTINUOUS
 62
     7
 10
385.591649836001
 20
-7.914963585711
 11
385.591649836001
 21
-6.836669369131
 12
385.598853530662
 22
-7.683385989682
 13
385.598853530662
 23
-7.683385989682
  0
SOLID
  8
図面枠
  6
CONTINUOUS
 62
     7
 10
385.598853530662
 20
-7.683385989682
 11
385.591649836001
 21
-6.836669369131
 12
385.598853530662
 22
-6.836669369131
 13
385.598853530662
 23
-6.836669369131
  0
SOLID
  8
図面枠
  6
CONTINUOUS
 62
     7
 10
385.598853530662
 20
-7.683385989682
 11
385.598853530662
 21
-6.836669369131
 12
385.606057225324
 22
-7.437330379873
 13
385.606057225324
 23
-7.437330379873
  0
SOLID
  8
図面枠
  6
CONTINUOUS
 62
     7
 10
385.606057225324
 20
-7.437330379873
 11
385.598853530662
 21
-6.836669369131
 12
385.606057225324
 22
-6.836669369131
 13
385.606057225324
 23
-6.836669369131
  0
SOLID
  8
図面枠
  6
CONTINUOUS
 62
     7
 10
385.606057225324
 20
-7.437330379873
 11
385.606057225324
 21
-6.836669369131
 12
385.613260919985
 22
-7.176796756283
 13
385.613260919985
 23
-7.176796756283
  0
SOLID
  8
図面枠
  6
CONTINUOUS
 62
     7
 10
385.613260919985
 20
-7.176796756283
 11
385.606057225324
 21
-6.836669369131
 12
385.613260919985
 22
-6.836669369131
 13
385.613260919985
 23
-6.836669369131
  0
SOLID
  8
図面枠
  6
CONTINUOUS
 62
     7
 10
385.613260919985
 20
-7.176796756283
 11
385.613260919985
 21
-6.836669369131
 12
385.620464614646
 22
-6.894581424252
 13
385.620464614646
 23
-6.894581424252
  0
SOLID
  8
図面枠
  6
CONTINUOUS
 62
     7
 10
385.620464614646
 20
-6.894581424252
 11
385.613260919985
 21
-6.836669369131
 12
385.620464614646
 22
-6.836669369131
 13
385.620464614646
 23
-6.836669369131
  0
SOLID
  8
図面枠
  6
CONTINUOUS
 62
     7
 10
385.620464614646
 20
-6.894581424252
 11
385.620464614646
 21
-6.836669369131
 12
385.699987753752
 22
-6.836669369131
 13
385.699987753752
 23
-6.836669369131
  0
ENDBLK
  8
0
  0
BLOCK
  8
0
  2
*U26
 70
     1
 10
0.0
 20
0.0
  0
SOLID
  8
図面枠
  6
CONTINUOUS
 62
     7
 10
384.630027223153
 20
-6.757075605567
 11
384.630027223153
 21
-6.746270063575
 12
384.655310778926
 22
-6.830377107797
 13
384.655310778926
 23
-6.830377107797
  0
SOLID
  8
図面枠
  6
CONTINUOUS
 62
     7
 10
384.655310778926
 20
-6.830377107797
 11
384.630027223153
 21
-6.746270063575
 12
384.655310778926
 22
-6.731792049795
 13
384.655310778926
 23
-6.731792049795
  0
SOLID
  8
図面枠
  6
CONTINUOUS
 62
     7
 10
384.655310778926
 20
-6.830377107797
 11
384.655310778926
 21
-6.731792049795
 12
384.69867419581
 22
-6.956095326704
 13
384.69867419581
 23
-6.956095326704
  0
SOLID
  8
図面枠
  6
CONTINUOUS
 62
     7
 10
384.69867419581
 20
-6.956095326704
 11
384.655310778926
 21
-6.731792049795
 12
384.69867419581
 22
-6.767928230531
 13
384.69867419581
 23
-6.767928230531
  0
SOLID
  8
図面枠
  6
CONTINUOUS
 62
     7
 10
384.69867419581
 20
-6.956095326704
 11
384.69867419581
 21
-6.767928230531
 12
384.763789945593
 22
-7.021261948167
 13
384.763789945593
 23
-7.021261948167
  0
SOLID
  8
図面枠
  6
CONTINUOUS
 62
     7
 10
384.763789945593
 20
-7.021261948167
 11
384.69867419581
 21
-6.767928230531
 12
384.763789945593
 22
-6.82219135535
 13
384.763789945593
 23
-6.82219135535
  0
SOLID
  8
図面枠
  6
CONTINUOUS
 62
     7
 10
384.763789945593
 20
-7.021261948167
 11
384.763789945593
 21
-6.82219135535
 12
384.789073501365
 22
-7.046565256718
 13
384.789073501365
 23
-7.046565256718
  0
SOLID
  8
図面枠
  6
CONTINUOUS
 62
     7
 10
384.789073501365
 20
-7.046565256718
 11
384.763789945593
 21
-6.82219135535
 12
384.789073501365
 22
-6.822582357835
 13
384.789073501365
 23
-6.822582357835
  0
SOLID
  8
図面枠
  6
CONTINUOUS
 62
     7
 10
384.789073501365
 20
-7.046565256718
 11
384.789073501365
 21
-6.822582357835
 12
384.825233223587
 22
-6.985051354265
 13
384.825233223587
 23
-6.985051354265
  0
SOLID
  8
図面枠
  6
CONTINUOUS
 62
     7
 10
384.825233223587
 20
-6.985051354265
 11
384.789073501365
 21
-6.822582357835
 12
384.825233223587
 22
-6.823141556919
 13
384.825233223587
 23
-6.823141556919
  0
SOLID
  8
図面枠
  6
CONTINUOUS
 62
     7
 10
384.825233223587
 20
-6.985051354265
 11
384.825233223587
 21
-6.823141556919
 12
384.854189251148
 22
-6.970573340485
 13
384.854189251148
 23
-6.970573340485
  0
SOLID
  8
図面枠
  6
CONTINUOUS
 62
     7
 10
384.854189251148
 20
-6.970573340485
 11
384.825233223587
 21
-6.823141556919
 12
384.854189251148
 22
-6.82358935306
 13
384.854189251148
 23
-6.82358935306
  0
SOLID
  8
図面枠
  6
CONTINUOUS
 62
     7
 10
384.854189251148
 20
-6.970573340485
 11
384.854189251148
 21
-6.82358935306
 12
384.937243613127
 22
-6.945219160255
 13
384.937243613127
 23
-6.945219160255
  0
SOLID
  8
図面枠
  6
CONTINUOUS
 62
     7
 10
384.937243613127
 20
-6.945219160255
 11
384.854189251148
 21
-6.82358935306
 12
384.937243613127
 22
-6.824873763456
 13
384.937243613127
 23
-6.824873763456
  0
SOLID
  8
図面枠
  6
CONTINUOUS
 62
     7
 10
384.937243613127
 20
-6.945219160255
 11
384.937243613127
 21
-6.824873763456
 12
385.074678807355
 22
-6.912661285363
 13
385.074678807355
 23
-6.912661285363
  0
SOLID
  8
図面枠
  6
CONTINUOUS
 62
     7
 10
385.074678807355
 20
-6.912661285363
 11
384.937243613127
 21
-6.824873763456
 12
385.074678807355
 22
-6.826999156849
 13
385.074678807355
 23
-6.826999156849
  0
SOLID
  8
図面枠
  6
CONTINUOUS
 62
     7
 10
385.074678807355
 20
-6.912661285363
 11
385.074678807355
 21
-6.826999156849
 12
385.259008641339
 22
-6.876501563141
 13
385.259008641339
 23
-6.876501563141
  0
SOLID
  8
図面枠
  6
CONTINUOUS
 62
     7
 10
385.259008641339
 20
-6.876501563141
 11
385.074678807355
 21
-6.826999156849
 12
385.259008641339
 22
-6.829849761553
 13
385.259008641339
 23
-6.829849761553
  0
SOLID
  8
図面枠
  6
CONTINUOUS
 62
     7
 10
385.259008641339
 20
-6.876501563141
 11
385.259008641339
 21
-6.829849761553
 12
385.494046835784
 22
-6.836669369131
 13
385.494046835784
 23
-6.836669369131
  0
SOLID
  8
図面枠
  6
CONTINUOUS
 62
     7
 10
385.494046835784
 20
-6.836669369131
 11
385.259008641339
 21
-6.829849761553
 12
385.494046835784
 22
-6.833484555598
 13
385.494046835784
 23
-6.833484555598
  0
SOLID
  8
図面枠
  6
CONTINUOUS
 62
     7
 10
385.494046835784
 20
-6.836669369131
 11
385.494046835784
 21
-6.833484555598
 12
385.699987753752
 22
-6.836669369131
 13
385.699987753752
 23
-6.836669369131
  0
ENDBLK
  8
0
  0
BLOCK
  8
0
  2
*U27
 70
     1
 10
0.0
 20
0.0
  0
SOLID
  8
図面枠
  6
CONTINUOUS
 62
     7
 10
384.799949667815
 20
-6.822750554434
 11
384.763789945593
 21
-6.82219135535
 12
384.799949667815
 22
-6.82219135535
 13
384.799949667815
 23
-6.82219135535
  0
SOLID
  8
図面枠
  6
CONTINUOUS
 62
     7
 10
384.799949667815
 20
-6.822750554434
 11
384.799949667815
 21
-6.82219135535
 12
385.016766752233
 22
-6.826103564566
 13
385.016766752233
 23
-6.826103564566
  0
SOLID
  8
図面枠
  6
CONTINUOUS
 62
     7
 10
385.016766752233
 20
-6.826103564566
 11
384.799949667815
 21
-6.82219135535
 12
385.016766752233
 22
-6.796907799578
 13
385.016766752233
 23
-6.796907799578
  0
SOLID
  8
図面枠
  6
CONTINUOUS
 62
     7
 10
385.016766752233
 20
-6.826103564566
 11
385.016766752233
 21
-6.796907799578
 12
385.193892891556
 22
-6.828842766328
 13
385.193892891556
 23
-6.828842766328
  0
SOLID
  8
図面枠
  6
CONTINUOUS
 62
     7
 10
385.193892891556
 20
-6.828842766328
 11
385.016766752233
 21
-6.796907799578
 12
385.193892891556
 22
-6.778827938467
 13
385.193892891556
 23
-6.778827938467
  0
SOLID
  8
図面枠
  6
CONTINUOUS
 62
     7
 10
385.193892891556
 20
-6.828842766328
 11
385.193892891556
 21
-6.778827938467
 12
385.327655613995
 22
-6.830911366064
 13
385.327655613995
 23
-6.830911366064
  0
SOLID
  8
図面枠
  6
CONTINUOUS
 62
     7
 10
385.327655613995
 20
-6.830911366064
 11
385.193892891556
 21
-6.778827938467
 12
385.327655613995
 22
-6.764349924686
 13
385.327655613995
 23
-6.764349924686
  0
SOLID
  8
図面枠
  6
CONTINUOUS
 62
     7
 10
385.327655613995
 20
-6.830911366064
 11
385.327655613995
 21
-6.764349924686
 12
385.425258614212
 22
-6.832420766716
 13
385.425258614212
 23
-6.832420766716
  0
SOLID
  8
図面枠
  6
CONTINUOUS
 62
     7
 10
385.425258614212
 20
-6.832420766716
 11
385.327655613995
 21
-6.764349924686
 12
385.425258614212
 22
-6.753473758237
 13
385.425258614212
 23
-6.753473758237
  0
SOLID
  8
図面枠
  6
CONTINUOUS
 62
     7
 10
385.425258614212
 20
-6.832420766716
 11
385.425258614212
 21
-6.753473758237
 12
385.468622031096
 22
-6.833091368743
 13
385.468622031096
 23
-6.833091368743
  0
SOLID
  8
図面枠
  6
CONTINUOUS
 62
     7
 10
385.468622031096
 20
-6.833091368743
 11
385.425258614212
 21
-6.753473758237
 12
385.468622031096
 22
-6.746270063575
 13
385.468622031096
 23
-6.746270063575
  0
SOLID
  8
図面枠
  6
CONTINUOUS
 62
     7
 10
385.468622031096
 20
-6.833091368743
 11
385.468622031096
 21
-6.746270063575
 12
385.537410252667
 22
-6.834155157625
 13
385.537410252667
 23
-6.834155157625
  0
SOLID
  8
図面枠
  6
CONTINUOUS
 62
     7
 10
385.537410252667
 20
-6.834155157625
 11
385.468622031096
 21
-6.746270063575
 12
385.537410252667
 22
-6.626844106001
 13
385.537410252667
 23
-6.626844106001
  0
SOLID
  8
図面枠
  6
CONTINUOUS
 62
     7
 10
385.537410252667
 20
-6.834155157625
 11
385.537410252667
 21
-6.626844106001
 12
385.681907892641
 22
-6.836389769589
 13
385.681907892641
 23
-6.836389769589
  0
SOLID
  8
図面枠
  6
CONTINUOUS
 62
     7
 10
385.681907892641
 20
-6.836389769589
 11
385.537410252667
 21
-6.626844106001
 12
385.681907892641
 22
-6.786031633128
 13
385.681907892641
 23
-6.786031633128
  0
SOLID
  8
図面枠
  6
CONTINUOUS
 62
     7
 10
385.681907892641
 20
-6.836389769589
 11
385.681907892641
 21
-6.786031633128
 12
385.699987753752
 22
-6.836669369131
 13
385.699987753752
 23
-6.836669369131
  0
ENDBLK
  8
0
  0
BLOCK
  8
0
  2
*U28
 70
     1
 10
0.0
 20
0.0
  0
SOLID
  8
図面枠
  6
CONTINUOUS
 62
     7
 10
383.556394220766
 20
-5.487736128196
 11
383.549190526105
 21
-5.47976166785
 12
383.556394220766
 22
-5.436398250967
 13
383.556394220766
 23
-5.436398250967
  0
SOLID
  8
図面枠
  6
CONTINUOUS
 62
     7
 10
383.556394220766
 20
-5.487736128196
 11
383.556394220766
 21
-5.436398250967
 12
383.617837498761
 22
-5.555753584083
 13
383.617837498761
 23
-5.555753584083
  0
SOLID
  8
図面枠
  6
CONTINUOUS
 62
     7
 10
383.617837498761
 20
-5.555753584083
 11
383.556394220766
 21
-5.436398250967
 12
383.617837498761
 22
-5.46234630196
 13
383.617837498761
 23
-5.46234630196
  0
SOLID
  8
図面枠
  6
CONTINUOUS
 62
     7
 10
383.617837498761
 20
-5.555753584083
 11
383.617837498761
 21
-5.46234630196
 12
383.719112970766
 22
-5.704135569218
 13
383.719112970766
 23
-5.704135569218
  0
SOLID
  8
図面枠
  6
CONTINUOUS
 62
     7
 10
383.719112970766
 20
-5.704135569218
 11
383.617837498761
 21
-5.46234630196
 12
383.719112970766
 22
-5.50511584808
 13
383.719112970766
 23
-5.50511584808
  0
SOLID
  8
図面枠
  6
CONTINUOUS
 62
     7
 10
383.719112970766
 20
-5.704135569218
 11
383.719112970766
 21
-5.50511584808
 12
383.791291166296
 22
-5.852517554352
 13
383.791291166296
 23
-5.852517554352
  0
SOLID
  8
図面枠
  6
CONTINUOUS
 62
     7
 10
383.791291166296
 20
-5.852517554352
 11
383.719112970766
 21
-5.50511584808
 12
383.791291166296
 22
-5.569901128704
 13
383.791291166296
 23
-5.569901128704
  0
SOLID
  8
図面枠
  6
CONTINUOUS
 62
     7
 10
383.791291166296
 20
-5.852517554352
 11
383.791291166296
 21
-5.569901128704
 12
383.823919665645
 22
-5.871149427239
 13
383.823919665645
 23
-5.871149427239
  0
SOLID
  8
図面枠
  6
CONTINUOUS
 62
     7
 10
383.823919665645
 20
-5.871149427239
 11
383.791291166296
 21
-5.569901128704
 12
383.823919665645
 22
-5.599187625424
 13
383.823919665645
 23
-5.599187625424
  0
SOLID
  8
図面枠
  6
CONTINUOUS
 62
     7
 10
383.823919665645
 20
-5.871149427239
 11
383.823919665645
 21
-5.599187625424
 12
383.834795832094
 22
-5.877360051535
 13
383.834795832094
 23
-5.877360051535
  0
SOLID
  8
図面枠
  6
CONTINUOUS
 62
     7
 10
383.834795832094
 20
-5.877360051535
 11
383.823919665645
 21
-5.599187625424
 12
383.834795832094
 22
-5.613665639204
 13
383.834795832094
 23
-5.613665639204
  0
SOLID
  8
図面枠
  6
CONTINUOUS
 62
     7
 10
383.834795832094
 20
-5.877360051535
 11
383.834795832094
 21
-5.613665639204
 12
383.841999526756
 22
-5.881473581913
 13
383.841999526756
 23
-5.881473581913
  0
SOLID
  8
図面枠
  6
CONTINUOUS
 62
     7
 10
383.841999526756
 20
-5.881473581913
 11
383.834795832094
 21
-5.613665639204
 12
383.841999526756
 22
-5.639687340416
 13
383.841999526756
 23
-5.639687340416
  0
SOLID
  8
図面枠
  6
CONTINUOUS
 62
     7
 10
383.841999526756
 20
-5.881473581913
 11
383.841999526756
 21
-5.639687340416
 12
383.888894166513
 22
-5.809083513011
 13
383.888894166513
 23
-5.809083513011
  0
ENDBLK
  8
0
  0
BLOCK
  8
0
  2
*U29
 70
     1
 10
0.0
 20
0.0
  0
SOLID
  8
図面枠
  6
CONTINUOUS
 62
     7
 10
384.644434612476
 20
-8.240612959083
 11
384.637230917815
 21
-8.193577070411
 12
384.644434612476
 22
-8.184300804381
 13
384.644434612476
 23
-8.184300804381
  0
SOLID
  8
図面枠
  6
CONTINUOUS
 62
     7
 10
384.644434612476
 20
-8.240612959083
 11
384.644434612476
 21
-8.184300804381
 12
384.662514473587
 22
-8.282297935974
 13
384.662514473587
 23
-8.282297935974
  0
SOLID
  8
図面枠
  6
CONTINUOUS
 62
     7
 10
384.662514473587
 20
-8.282297935974
 11
384.644434612476
 21
-8.184300804381
 12
384.662514473587
 22
-8.16101919552
 13
384.662514473587
 23
-8.16101919552
  0
SOLID
  8
図面枠
  6
CONTINUOUS
 62
     7
 10
384.662514473587
 20
-8.282297935974
 11
384.662514473587
 21
-8.16101919552
 12
384.72763022337
 22
-8.432428985559
 13
384.72763022337
 23
-8.432428985559
  0
SOLID
  8
図面枠
  6
CONTINUOUS
 62
     7
 10
384.72763022337
 20
-8.432428985559
 11
384.662514473587
 21
-8.16101919552
 12
384.72763022337
 22
-8.224043696412
 13
384.72763022337
 23
-8.224043696412
  0
SOLID
  8
図面枠
  6
CONTINUOUS
 62
     7
 10
384.72763022337
 20
-8.432428985559
 11
384.72763022337
 21
-8.224043696412
 12
384.774666112042
 22
-8.476761662238
 13
384.774666112042
 23
-8.476761662238
  0
SOLID
  8
図面枠
  6
CONTINUOUS
 62
     7
 10
384.774666112042
 20
-8.476761662238
 11
384.72763022337
 21
-8.224043696412
 12
384.774666112042
 22
-8.269568986644
 13
384.774666112042
 23
-8.269568986644
  0
SOLID
  8
図面枠
  6
CONTINUOUS
 62
     7
 10
384.774666112042
 20
-8.476761662238
 11
384.774666112042
 21
-8.269568986644
 12
384.789073501365
 22
-8.49034104068
 13
384.789073501365
 23
-8.49034104068
  0
SOLID
  8
図面枠
  6
CONTINUOUS
 62
     7
 10
384.789073501365
 20
-8.49034104068
 11
384.774666112042
 21
-8.269568986644
 12
384.789073501365
 22
-8.270179595453
 13
384.789073501365
 23
-8.270179595453
  0
SOLID
  8
図面枠
  6
CONTINUOUS
 62
     7
 10
384.789073501365
 20
-8.49034104068
 11
384.789073501365
 21
-8.270179595453
 12
384.832436918249
 22
-8.432428985559
 13
384.832436918249
 23
-8.432428985559
  0
SOLID
  8
図面枠
  6
CONTINUOUS
 62
     7
 10
384.832436918249
 20
-8.432428985559
 11
384.789073501365
 21
-8.270179595453
 12
384.832436918249
 22
-8.272017408242
 13
384.832436918249
 23
-8.272017408242
  0
SOLID
  8
図面枠
  6
CONTINUOUS
 62
     7
 10
384.832436918249
 20
-8.432428985559
 11
384.832436918249
 21
-8.272017408242
 12
384.868596640471
 22
-8.417950971778
 13
384.868596640471
 23
-8.417950971778
  0
SOLID
  8
図面枠
  6
CONTINUOUS
 62
     7
 10
384.868596640471
 20
-8.417950971778
 11
384.832436918249
 21
-8.272017408242
 12
384.868596640471
 22
-8.273549916627
 13
384.868596640471
 23
-8.273549916627
  0
SOLID
  8
図面枠
  6
CONTINUOUS
 62
     7
 10
384.868596640471
 20
-8.417950971778
 11
384.868596640471
 21
-8.273549916627
 12
384.969872112476
 22
-8.385393096887
 13
384.969872112476
 23
-8.385393096887
  0
SOLID
  8
図面枠
  6
CONTINUOUS
 62
     7
 10
384.969872112476
 20
-8.385393096887
 11
384.868596640471
 21
-8.273549916627
 12
384.969872112476
 22
-8.277842137375
 13
384.969872112476
 23
-8.277842137375
  0
SOLID
  8
図面枠
  6
CONTINUOUS
 62
     7
 10
384.969872112476
 20
-8.385393096887
 11
384.969872112476
 21
-8.277842137375
 12
385.103634834916
 22
-8.352835221995
 13
385.103634834916
 23
-8.352835221995
  0
SOLID
  8
図面枠
  6
CONTINUOUS
 62
     7
 10
385.103634834916
 20
-8.352835221995
 11
384.969872112476
 21
-8.277842137375
 12
385.103634834916
 22
-8.283511221126
 13
385.103634834916
 23
-8.283511221126
  0
SOLID
  8
図面枠
  6
CONTINUOUS
 62
     7
 10
385.103634834916
 20
-8.352835221995
 11
385.103634834916
 21
-8.283511221126
 12
385.266212336001
 22
-8.323879194435
 13
385.266212336001
 23
-8.323879194435
  0
SOLID
  8
図面枠
  6
CONTINUOUS
 62
     7
 10
385.266212336001
 20
-8.323879194435
 11
385.103634834916
 21
-8.283511221126
 12
385.266212336001
 22
-8.290401522495
 13
385.266212336001
 23
-8.290401522495
  0
SOLID
  8
図面枠
  6
CONTINUOUS
 62
     7
 10
385.266212336001
 20
-8.323879194435
 11
385.266212336001
 21
-8.290401522495
 12
385.457887113561
 22
-8.298525014204
 13
385.457887113561
 23
-8.298525014204
  0
ENDBLK
  8
0
  0
BLOCK
  8
0
  2
*U30
 70
     1
 10
0.0
 20
0.0
  0
SOLID
  8
図面枠
  6
CONTINUOUS
 62
     7
 10
384.709550362259
 20
-7.529601233551
 11
384.673390640037
 21
-7.433728532542
 12
384.709550362259
 22
-7.419250518762
 13
384.709550362259
 23
-7.419250518762
  0
SOLID
  8
図面枠
  6
CONTINUOUS
 62
     7
 10
384.709550362259
 20
-7.529601233551
 11
384.709550362259
 21
-7.419250518762
 12
384.745710084482
 22
-7.62547393456
 13
384.745710084482
 23
-7.62547393456
  0
SOLID
  8
図面枠
  6
CONTINUOUS
 62
     7
 10
384.745710084482
 20
-7.62547393456
 11
384.709550362259
 21
-7.419250518762
 12
384.745710084482
 22
-7.443003791723
 13
384.745710084482
 23
-7.443003791723
  0
SOLID
  8
図面枠
  6
CONTINUOUS
 62
     7
 10
384.745710084482
 20
-7.62547393456
 11
384.745710084482
 21
-7.443003791723
 12
384.825233223587
 22
-7.695153818663
 13
384.825233223587
 23
-7.695153818663
  0
SOLID
  8
図面枠
  6
CONTINUOUS
 62
     7
 10
384.825233223587
 20
-7.695153818663
 11
384.745710084482
 21
-7.443003791723
 12
384.825233223587
 22
-7.495242434994
 13
384.825233223587
 23
-7.495242434994
  0
SOLID
  8
図面枠
  6
CONTINUOUS
 62
     7
 10
384.825233223587
 20
-7.695153818663
 11
384.825233223587
 21
-7.495242434994
 12
384.832436918249
 22
-7.701465850793
 13
384.832436918249
 23
-7.701465850793
  0
SOLID
  8
図面枠
  6
CONTINUOUS
 62
     7
 10
384.832436918249
 20
-7.701465850793
 11
384.825233223587
 21
-7.495242434994
 12
384.832436918249
 22
-7.49535958061
 13
384.832436918249
 23
-7.49535958061
  0
SOLID
  8
図面枠
  6
CONTINUOUS
 62
     7
 10
384.832436918249
 20
-7.701465850793
 11
384.832436918249
 21
-7.49535958061
 12
384.879472806921
 22
-7.640022572798
 13
384.879472806921
 23
-7.640022572798
  0
SOLID
  8
図面枠
  6
CONTINUOUS
 62
     7
 10
384.879472806921
 20
-7.640022572798
 11
384.832436918249
 21
-7.49535958061
 12
384.879472806921
 22
-7.496124472569
 13
384.879472806921
 23
-7.496124472569
  0
SOLID
  8
図面枠
  6
CONTINUOUS
 62
     7
 10
384.879472806921
 20
-7.640022572798
 11
384.879472806921
 21
-7.496124472569
 12
384.89034897337
 22
-7.63635010101
 13
384.89034897337
 23
-7.63635010101
  0
SOLID
  8
図面枠
  6
CONTINUOUS
 62
     7
 10
384.89034897337
 20
-7.63635010101
 11
384.879472806921
 21
-7.496124472569
 12
384.89034897337
 22
-7.496301339479
 13
384.89034897337
 23
-7.496301339479
  0
SOLID
  8
図面枠
  6
CONTINUOUS
 62
     7
 10
384.89034897337
 20
-7.63635010101
 11
384.89034897337
 21
-7.496301339479
 12
384.958995946027
 22
-7.614668392568
 13
384.958995946027
 23
-7.614668392568
  0
SOLID
  8
図面枠
  6
CONTINUOUS
 62
     7
 10
384.958995946027
 20
-7.614668392568
 11
384.89034897337
 21
-7.496301339479
 12
384.958995946027
 22
-7.497417668284
 13
384.958995946027
 23
-7.497417668284
  0
SOLID
  8
図面枠
  6
CONTINUOUS
 62
     7
 10
384.958995946027
 20
-7.614668392568
 11
384.958995946027
 21
-7.497417668284
 12
385.081882502016
 22
-7.585712365007
 13
385.081882502016
 23
-7.585712365007
  0
SOLID
  8
図面枠
  6
CONTINUOUS
 62
     7
 10
385.081882502016
 20
-7.585712365007
 11
384.958995946027
 21
-7.497417668284
 12
385.081882502016
 22
-7.499416034665
 13
385.081882502016
 23
-7.499416034665
  0
SOLID
  8
図面枠
  6
CONTINUOUS
 62
     7
 10
385.081882502016
 20
-7.585712365007
 11
385.081882502016
 21
-7.499416034665
 12
385.262681113127
 22
-7.549552642785
 13
385.262681113127
 23
-7.549552642785
  0
SOLID
  8
図面枠
  6
CONTINUOUS
 62
     7
 10
385.262681113127
 20
-7.549552642785
 11
385.081882502016
 21
-7.499416034665
 12
385.262681113127
 22
-7.502356159914
 13
385.262681113127
 23
-7.502356159914
  0
SOLID
  8
図面枠
  6
CONTINUOUS
 62
     7
 10
385.262681113127
 20
-7.549552642785
 11
385.262681113127
 21
-7.502356159914
 12
385.494046835784
 22
-7.506118601444
 13
385.494046835784
 23
-7.506118601444
  0
ENDBLK
  8
0
  0
BLOCK
  8
0
  2
*U31
 70
     1
 10
0.0
 20
0.0
  0
SOLID
  8
図面枠
  6
CONTINUOUS
 62
     7
 10
383.281665081226
 20
-5.719152594187
 11
383.270788914777
 21
-5.704135569218
 12
383.281665081226
 22
-5.657099680546
 13
383.281665081226
 23
-5.657099680546
  0
SOLID
  8
図面枠
  6
CONTINUOUS
 62
     7
 10
383.281665081226
 20
-5.719152594187
 11
383.281665081226
 21
-5.657099680546
 12
383.375595609655
 22
-5.848845082564
 13
383.375595609655
 23
-5.848845082564
  0
SOLID
  8
図面枠
  6
CONTINUOUS
 62
     7
 10
383.375595609655
 20
-5.848845082564
 11
383.281665081226
 21
-5.657099680546
 12
383.375595609655
 22
-5.720691727953
 13
383.375595609655
 23
-5.720691727953
  0
SOLID
  8
図面枠
  6
CONTINUOUS
 62
     7
 10
383.375595609655
 20
-5.848845082564
 11
383.375595609655
 21
-5.720691727953
 12
383.404551637216
 22
-5.901240422397
 13
383.404551637216
 23
-5.901240422397
  0
SOLID
  8
図面枠
  6
CONTINUOUS
 62
     7
 10
383.404551637216
 20
-5.901240422397
 11
383.375595609655
 21
-5.720691727953
 12
383.404551637216
 22
-5.74029529144
 13
383.404551637216
 23
-5.74029529144
  0
SOLID
  8
図面枠
  6
CONTINUOUS
 62
     7
 10
383.404551637216
 20
-5.901240422397
 11
383.404551637216
 21
-5.74029529144
 12
383.451587525888
 22
-5.986350901249
 13
383.451587525888
 23
-5.986350901249
  0
SOLID
  8
図面枠
  6
CONTINUOUS
 62
     7
 10
383.451587525888
 20
-5.986350901249
 11
383.404551637216
 21
-5.74029529144
 12
383.451587525888
 22
-5.783475360791
 13
383.451587525888
 23
-5.783475360791
  0
SOLID
  8
図面枠
  6
CONTINUOUS
 62
     7
 10
383.451587525888
 20
-5.986350901249
 11
383.451587525888
 21
-5.783475360791
 12
383.484074776322
 22
-6.065944664812
 13
383.484074776322
 23
-6.065944664812
  0
SOLID
  8
図面枠
  6
CONTINUOUS
 62
     7
 10
383.484074776322
 20
-6.065944664812
 11
383.451587525888
 21
-5.783475360791
 12
383.484074776322
 22
-5.813299432714
 13
383.484074776322
 23
-5.813299432714
  0
SOLID
  8
図面枠
  6
CONTINUOUS
 62
     7
 10
383.484074776322
 20
-6.065944664812
 11
383.484074776322
 21
-5.813299432714
 12
383.534641887867
 22
-6.145143578904
 13
383.534641887867
 23
-6.145143578904
  0
SOLID
  8
図面枠
  6
CONTINUOUS
 62
     7
 10
383.534641887867
 20
-6.145143578904
 11
383.484074776322
 21
-5.813299432714
 12
383.534641887867
 22
-5.859721249014
 13
383.534641887867
 23
-5.859721249014
  0
SOLID
  8
図面枠
  6
CONTINUOUS
 62
     7
 10
383.534641887867
 20
-6.145143578904
 11
383.534641887867
 21
-5.859721249014
 12
383.538314359655
 22
-6.150895455347
 13
383.538314359655
 23
-6.150895455347
  0
SOLID
  8
図面枠
  6
CONTINUOUS
 62
     7
 10
383.538314359655
 20
-6.150895455347
 11
383.534641887867
 21
-5.859721249014
 12
383.538314359655
 22
-5.866995568132
 13
383.538314359655
 23
-5.866995568132
  0
SOLID
  8
図面枠
  6
CONTINUOUS
 62
     7
 10
383.538314359655
 20
-6.150895455347
 11
383.538314359655
 21
-5.866995568132
 12
383.567270387216
 22
-6.196246788836
 13
383.567270387216
 23
-6.196246788836
  0
SOLID
  8
図面枠
  6
CONTINUOUS
 62
     7
 10
383.567270387216
 20
-6.196246788836
 11
383.538314359655
 21
-5.866995568132
 12
383.567270387216
 22
-5.932853815542
 13
383.567270387216
 23
-5.932853815542
  0
SOLID
  8
図面枠
  6
CONTINUOUS
 62
     7
 10
383.567270387216
 20
-6.196246788836
 11
383.567270387216
 21
-5.932853815542
 12
383.617837498761
 22
-6.098404695403
 13
383.617837498761
 23
-6.098404695403
  0
SOLID
  8
図面枠
  6
CONTINUOUS
 62
     7
 10
383.617837498761
 20
-6.098404695403
 11
383.567270387216
 21
-5.932853815542
 12
383.617837498761
 22
-6.047864803701
 13
383.617837498761
 23
-6.047864803701
  0
SOLID
  8
図面枠
  6
CONTINUOUS
 62
     7
 10
383.617837498761
 20
-6.098404695403
 11
383.617837498761
 21
-6.047864803701
 12
383.621509970549
 22
-6.091298845042
 13
383.621509970549
 23
-6.091298845042
  0
ENDBLK
  8
0
  0
BLOCK
  8
0
  2
*U32
 70
     1
 10
0.0
 20
0.0
  0
SOLID
  8
図面枠
  6
CONTINUOUS
 62
     7
 10
382.077941828188
 20
-6.746270063575
 11
382.077941828188
 21
-6.688358008454
 12
382.160996190167
 22
-6.793305952247
 13
382.160996190167
 23
-6.793305952247
  0
SOLID
  8
図面枠
  6
CONTINUOUS
 62
     7
 10
382.160996190167
 20
-6.793305952247
 11
382.077941828188
 21
-6.688358008454
 12
382.160996190167
 22
-6.699947867148
 13
382.160996190167
 23
-6.699947867148
  0
SOLID
  8
図面枠
  6
CONTINUOUS
 62
     7
 10
382.160996190167
 20
-6.793305952247
 11
382.160996190167
 21
-6.699947867148
 12
382.233315634612
 22
-6.861427543882
 13
382.233315634612
 23
-6.861427543882
  0
SOLID
  8
図面枠
  6
CONTINUOUS
 62
     7
 10
382.233315634612
 20
-6.861427543882
 11
382.160996190167
 21
-6.699947867148
 12
382.233315634612
 22
-6.710039716895
 13
382.233315634612
 23
-6.710039716895
  0
SOLID
  8
図面枠
  6
CONTINUOUS
 62
     7
 10
382.233315634612
 20
-6.861427543882
 11
382.233315634612
 21
-6.710039716895
 12
382.283882746157
 22
-6.909059438033
 13
382.283882746157
 23
-6.909059438033
  0
SOLID
  8
図面枠
  6
CONTINUOUS
 62
     7
 10
382.283882746157
 20
-6.909059438033
 11
382.233315634612
 21
-6.710039716895
 12
382.283882746157
 22
-6.735350724954
 13
382.283882746157
 23
-6.735350724954
  0
SOLID
  8
図面枠
  6
CONTINUOUS
 62
     7
 10
382.283882746157
 20
-6.909059438033
 11
382.283882746157
 21
-6.735350724954
 12
382.363405885263
 22
-7.037538263375
 13
382.363405885263
 23
-7.037538263375
  0
SOLID
  8
図面枠
  6
CONTINUOUS
 62
     7
 10
382.363405885263
 20
-7.037538263375
 11
382.283882746157
 21
-6.735350724954
 12
382.363405885263
 22
-6.775155466678
 13
382.363405885263
 23
-6.775155466678
  0
SOLID
  8
図面枠
  6
CONTINUOUS
 62
     7
 10
382.363405885263
 20
-7.037538263375
 11
382.363405885263
 21
-6.775155466678
 12
382.377954523501
 22
-7.061043270498
 13
382.377954523501
 23
-7.061043270498
  0
SOLID
  8
図面枠
  6
CONTINUOUS
 62
     7
 10
382.377954523501
 20
-7.061043270498
 11
382.363405885263
 21
-6.775155466678
 12
382.377954523501
 22
-6.79020341888
 13
382.377954523501
 23
-6.79020341888
  0
SOLID
  8
図面枠
  6
CONTINUOUS
 62
     7
 10
382.377954523501
 20
-7.061043270498
 11
382.377954523501
 21
-6.79020341888
 12
382.468353829056
 22
-7.18073397115
 13
382.468353829056
 23
-7.18073397115
  0
SOLID
  8
図面枠
  6
CONTINUOUS
 62
     7
 10
382.468353829056
 20
-7.18073397115
 11
382.377954523501
 21
-6.79020341888
 12
382.468353829056
 22
-6.883705257803
 13
382.468353829056
 23
-6.883705257803
  0
SOLID
  8
図面枠
  6
CONTINUOUS
 62
     7
 10
382.468353829056
 20
-7.18073397115
 11
382.468353829056
 21
-6.883705257803
 12
382.479088746591
 22
-7.194947241852
 13
382.479088746591
 23
-7.194947241852
  0
SOLID
  8
図面枠
  6
CONTINUOUS
 62
     7
 10
382.479088746591
 20
-7.194947241852
 11
382.468353829056
 21
-6.883705257803
 12
382.479088746591
 22
-6.898877838098
 13
382.479088746591
 23
-6.898877838098
  0
SOLID
  8
図面枠
  6
CONTINUOUS
 62
     7
 10
382.479088746591
 20
-7.194947241852
 11
382.479088746591
 21
-6.898877838098
 12
382.486292441252
 22
-7.189526872253
 13
382.486292441252
 23
-7.189526872253
  0
SOLID
  8
図面枠
  6
CONTINUOUS
 62
     7
 10
382.486292441252
 20
-7.189526872253
 11
382.479088746591
 21
-6.898877838098
 12
382.486292441252
 22
-6.909059438033
 13
382.486292441252
 23
-6.909059438033
  0
SOLID
  8
図面枠
  6
CONTINUOUS
 62
     7
 10
382.486292441252
 20
-7.189526872253
 11
382.486292441252
 21
-6.909059438033
 12
382.522452163475
 22
-7.162318742503
 13
382.522452163475
 23
-7.162318742503
  0
SOLID
  8
図面枠
  6
CONTINUOUS
 62
     7
 10
382.522452163475
 20
-7.162318742503
 11
382.486292441252
 21
-6.909059438033
 12
382.522452163475
 22
-7.029686011383
 13
382.522452163475
 23
-7.029686011383
  0
SOLID
  8
図面枠
  6
CONTINUOUS
 62
     7
 10
382.522452163475
 20
-7.162318742503
 11
382.522452163475
 21
-7.029686011383
 12
382.540532024586
 22
-7.089999298059
 13
382.540532024586
 23
-7.089999298059
  0
ENDBLK
  8
0
  0
BLOCK
  8
0
  2
*U33
 70
     1
 10
0.0
 20
0.0
  0
SOLID
  8
図面枠
  6
CONTINUOUS
 62
     7
 10
382.283882746157
 20
-8.106779612186
 11
382.280351523284
 21
-7.969273793501
 12
382.283882746157
 22
-7.967859924968
 13
382.283882746157
 23
-7.967859924968
  0
SOLID
  8
図面枠
  6
CONTINUOUS
 62
     7
 10
382.283882746157
 20
-8.106779612186
 11
382.283882746157
 21
-7.967859924968
 12
382.316511245506
 22
-8.208603032568
 13
382.316511245506
 23
-8.208603032568
  0
SOLID
  8
図面枠
  6
CONTINUOUS
 62
     7
 10
382.316511245506
 20
-8.208603032568
 11
382.283882746157
 21
-7.967859924968
 12
382.316511245506
 22
-7.954795779721
 13
382.316511245506
 23
-7.954795779721
  0
SOLID
  8
図面枠
  6
CONTINUOUS
 62
     7
 10
382.316511245506
 20
-8.208603032568
 11
382.316511245506
 21
-7.954795779721
 12
382.345326024152
 22
-8.298525014204
 13
382.345326024152
 23
-8.298525014204
  0
SOLID
  8
図面枠
  6
CONTINUOUS
 62
     7
 10
382.345326024152
 20
-8.298525014204
 11
382.316511245506
 21
-7.954795779721
 12
382.345326024152
 22
-8.025604387637
 13
382.345326024152
 23
-8.025604387637
  0
SOLID
  8
図面枠
  6
CONTINUOUS
 62
     7
 10
382.345326024152
 20
-8.298525014204
 11
382.345326024152
 21
-8.025604387637
 12
382.396034384612
 22
-8.363224241279
 13
382.396034384612
 23
-8.363224241279
  0
SOLID
  8
図面枠
  6
CONTINUOUS
 62
     7
 10
382.396034384612
 20
-8.363224241279
 11
382.345326024152
 21
-8.025604387637
 12
382.396034384612
 22
-8.150213653527
 13
382.396034384612
 23
-8.150213653527
  0
SOLID
  8
図面枠
  6
CONTINUOUS
 62
     7
 10
382.396034384612
 20
-8.363224241279
 11
382.396034384612
 21
-8.150213653527
 12
382.450273967945
 22
-8.432428985559
 13
382.450273967945
 23
-8.432428985559
  0
SOLID
  8
図面枠
  6
CONTINUOUS
 62
     7
 10
382.450273967945
 20
-8.432428985559
 11
382.396034384612
 21
-8.150213653527
 12
382.450273967945
 22
-8.179099056631
 13
382.450273967945
 23
-8.179099056631
  0
SOLID
  8
図面枠
  6
CONTINUOUS
 62
     7
 10
382.450273967945
 20
-8.432428985559
 11
382.450273967945
 21
-8.179099056631
 12
382.547876968162
 22
-8.504748430003
 13
382.547876968162
 23
-8.504748430003
  0
SOLID
  8
図面枠
  6
CONTINUOUS
 62
     7
 10
382.547876968162
 20
-8.504748430003
 11
382.450273967945
 21
-8.179099056631
 12
382.547876968162
 22
-8.198173046187
 13
382.547876968162
 23
-8.198173046187
  0
SOLID
  8
図面枠
  6
CONTINUOUS
 62
     7
 10
382.547876968162
 20
-8.504748430003
 11
382.547876968162
 21
-8.198173046187
 12
382.594771607919
 22
-8.446906999339
 13
382.594771607919
 23
-8.446906999339
  0
SOLID
  8
図面枠
  6
CONTINUOUS
 62
     7
 10
382.594771607919
 20
-8.446906999339
 11
382.547876968162
 21
-8.198173046187
 12
382.594771607919
 22
-8.207337394281
 13
382.594771607919
 23
-8.207337394281
  0
SOLID
  8
図面枠
  6
CONTINUOUS
 62
     7
 10
382.594771607919
 20
-8.446906999339
 11
382.594771607919
 21
-8.207337394281
 12
382.61285146903
 22
-8.403472957998
 13
382.61285146903
 23
-8.403472957998
  0
SOLID
  8
図面枠
  6
CONTINUOUS
 62
     7
 10
382.61285146903
 20
-8.403472957998
 11
382.594771607919
 21
-8.207337394281
 12
382.61285146903
 22
-8.210870636919
 13
382.61285146903
 23
-8.210870636919
  0
SOLID
  8
図面枠
  6
CONTINUOUS
 62
     7
 10
382.61285146903
 20
-8.403472957998
 11
382.61285146903
 21
-8.210870636919
 12
382.746614191469
 22
-8.237011111752
 13
382.746614191469
 23
-8.237011111752
  0
ENDBLK
  8
0
  0
BLOCK
  8
0
  2
*U34
 70
     1
 10
0.0
 20
0.0
  0
SOLID
  8
図面枠
  6
CONTINUOUS
 62
     7
 10
382.345326024152
 20
-5.97706673571
 11
382.334591106617
 21
-5.971872887468
 12
382.345326024152
 22
-5.910358985016
 13
382.345326024152
 23
-5.910358985016
  0
SOLID
  8
図面枠
  6
CONTINUOUS
 62
     7
 10
382.345326024152
 20
-5.97706673571
 11
382.345326024152
 21
-5.910358985016
 12
382.439397801495
 22
-6.022581247928
 13
382.439397801495
 23
-6.022581247928
  0
SOLID
  8
図面枠
  6
CONTINUOUS
 62
     7
 10
382.439397801495
 20
-6.022581247928
 11
382.345326024152
 21
-5.910358985016
 12
382.439397801495
 22
-5.923224929697
 13
382.439397801495
 23
-5.923224929697
  0
SOLID
  8
図面枠
  6
CONTINUOUS
 62
     7
 10
382.439397801495
 20
-6.022581247928
 11
382.439397801495
 21
-5.923224929697
 12
382.504372302363
 22
-6.081743456361
 13
382.504372302363
 23
-6.081743456361
  0
SOLID
  8
図面枠
  6
CONTINUOUS
 62
     7
 10
382.504372302363
 20
-6.081743456361
 11
382.439397801495
 21
-5.923224929697
 12
382.504372302363
 22
-5.932111317915
 13
382.504372302363
 23
-5.932111317915
  0
SOLID
  8
図面枠
  6
CONTINUOUS
 62
     7
 10
382.504372302363
 20
-6.081743456361
 11
382.504372302363
 21
-5.932111317915
 12
382.558611885697
 22
-6.131131039053
 13
382.558611885697
 23
-6.131131039053
  0
SOLID
  8
図面枠
  6
CONTINUOUS
 62
     7
 10
382.558611885697
 20
-6.131131039053
 11
382.504372302363
 21
-5.932111317915
 12
382.558611885697
 22
-5.958515169992
 13
382.558611885697
 23
-5.958515169992
  0
SOLID
  8
図面枠
  6
CONTINUOUS
 62
     7
 10
382.558611885697
 20
-6.131131039053
 11
382.558611885697
 21
-5.958515169992
 12
382.638135024803
 22
-6.264829316674
 13
382.638135024803
 23
-6.264829316674
  0
SOLID
  8
図面枠
  6
CONTINUOUS
 62
     7
 10
382.638135024803
 20
-6.264829316674
 11
382.558611885697
 21
-5.958515169992
 12
382.638135024803
 22
-5.997227067698
 13
382.638135024803
 23
-5.997227067698
  0
SOLID
  8
図面枠
  6
CONTINUOUS
 62
     7
 10
382.638135024803
 20
-6.264829316674
 11
382.638135024803
 21
-5.997227067698
 12
382.649011191252
 22
-6.283114871518
 13
382.649011191252
 23
-6.283114871518
  0
SOLID
  8
図面枠
  6
CONTINUOUS
 62
     7
 10
382.649011191252
 20
-6.283114871518
 11
382.638135024803
 21
-5.997227067698
 12
382.649011191252
 22
-6.009323064683
 13
382.649011191252
 23
-6.009323064683
  0
SOLID
  8
図面枠
  6
CONTINUOUS
 62
     7
 10
382.649011191252
 20
-6.283114871518
 11
382.649011191252
 21
-6.009323064683
 12
382.73573802502
 22
-6.420550065745
 13
382.73573802502
 23
-6.420550065745
  0
SOLID
  8
図面枠
  6
CONTINUOUS
 62
     7
 10
382.73573802502
 20
-6.420550065745
 11
382.649011191252
 21
-6.009323064683
 12
382.73573802502
 22
-6.105776858823
 13
382.73573802502
 23
-6.105776858823
  0
SOLID
  8
図面枠
  6
CONTINUOUS
 62
     7
 10
382.73573802502
 20
-6.420550065745
 11
382.73573802502
 21
-6.105776858823
 12
382.746614191469
 22
-6.404777500142
 13
382.746614191469
 23
-6.404777500142
  0
SOLID
  8
図面枠
  6
CONTINUOUS
 62
     7
 10
382.746614191469
 20
-6.404777500142
 11
382.73573802502
 21
-6.105776858823
 12
382.746614191469
 22
-6.120254872603
 13
382.746614191469
 23
-6.120254872603
  0
SOLID
  8
図面枠
  6
CONTINUOUS
 62
     7
 10
382.746614191469
 20
-6.404777500142
 11
382.746614191469
 21
-6.120254872603
 12
382.808057469464
 22
-6.315672746409
 13
382.808057469464
 23
-6.315672746409
  0
ENDBLK
  8
0
  0
BLOCK
  8
0
  2
*U35
 70
     1
 10
0.0
 20
0.0
  0
SOLID
  8
図面枠
  6
CONTINUOUS
 62
     7
 10
382.569488052146
 20
-8.202396375278
 11
382.450273967945
 21
-8.179099056631
 12
382.569488052146
 22
-8.132063167959
 13
382.569488052146
 23
-8.132063167959
  0
SOLID
  8
図面枠
  6
CONTINUOUS
 62
     7
 10
382.569488052146
 20
-8.202396375278
 11
382.569488052146
 21
-8.132063167959
 12
382.66355982949
 22
-8.220780278382
 13
382.66355982949
 23
-8.220780278382
  0
SOLID
  8
図面枠
  6
CONTINUOUS
 62
     7
 10
382.66355982949
 20
-8.220780278382
 11
382.569488052146
 21
-8.132063167959
 12
382.66355982949
 22
-8.059743723514
 13
382.66355982949
 23
-8.059743723514
  0
SOLID
  8
図面枠
  6
CONTINUOUS
 62
     7
 10
382.66355982949
 20
-8.220780278382
 11
382.66355982949
 21
-8.059743723514
 12
382.746614191469
 22
-8.237011111752
 13
382.746614191469
 23
-8.237011111752
  0
SOLID
  8
図面枠
  6
CONTINUOUS
 62
     7
 10
382.746614191469
 20
-8.237011111752
 11
382.66355982949
 21
-8.059743723514
 12
382.746614191469
 22
-7.974254543106
 13
382.746614191469
 23
-7.974254543106
  0
SOLID
  8
図面枠
  6
CONTINUOUS
 62
     7
 10
382.746614191469
 20
-8.237011111752
 11
382.746614191469
 21
-7.974254543106
 12
382.793650080141
 22
-8.181595265903
 13
382.793650080141
 23
-8.181595265903
  0
SOLID
  8
図面枠
  6
CONTINUOUS
 62
     7
 10
382.793650080141
 20
-8.181595265903
 11
382.746614191469
 21
-7.974254543106
 12
382.793650080141
 22
-7.92583975216
 13
382.793650080141
 23
-7.92583975216
  0
SOLID
  8
図面枠
  6
CONTINUOUS
 62
     7
 10
382.793650080141
 20
-8.181595265903
 11
382.793650080141
 21
-7.92583975216
 12
382.808057469464
 22
-8.16462104285
 13
382.808057469464
 23
-8.16462104285
  0
SOLID
  8
図面枠
  6
CONTINUOUS
 62
     7
 10
382.808057469464
 20
-8.16462104285
 11
382.793650080141
 21
-7.92583975216
 12
382.808057469464
 22
-7.91018618798
 13
382.808057469464
 23
-7.91018618798
  0
SOLID
  8
図面枠
  6
CONTINUOUS
 62
     7
 10
382.808057469464
 20
-8.16462104285
 11
382.808057469464
 21
-7.91018618798
 12
382.920209107919
 22
-8.030635110358
 13
382.920209107919
 23
-8.030635110358
  0
SOLID
  8
図面枠
  6
CONTINUOUS
 62
     7
 10
382.920209107919
 20
-8.030635110358
 11
382.808057469464
 21
-7.91018618798
 12
382.920209107919
 22
-7.788333933475
 13
382.920209107919
 23
-7.788333933475
  0
SOLID
  8
図面枠
  6
CONTINUOUS
 62
     7
 10
382.920209107919
 20
-8.030635110358
 11
382.920209107919
 21
-7.788333933475
 12
382.93828896903
 22
-8.009035363054
 13
382.93828896903
 23
-8.009035363054
  0
SOLID
  8
図面枠
  6
CONTINUOUS
 62
     7
 10
382.93828896903
 20
-8.009035363054
 11
382.920209107919
 21
-7.788333933475
 12
382.93828896903
 22
-7.768103192335
 13
382.93828896903
 23
-7.768103192335
  0
SOLID
  8
図面枠
  6
CONTINUOUS
 62
     7
 10
382.93828896903
 20
-8.009035363054
 11
382.93828896903
 21
-7.768103192335
 12
383.043095663909
 22
-7.876340449941
 13
383.043095663909
 23
-7.876340449941
  0
SOLID
  8
図面枠
  6
CONTINUOUS
 62
     7
 10
383.043095663909
 20
-7.876340449941
 11
382.93828896903
 21
-7.768103192335
 12
383.043095663909
 22
-7.65082811479
 13
383.043095663909
 23
-7.65082811479
  0
SOLID
  8
図面枠
  6
CONTINUOUS
 62
     7
 10
383.043095663909
 20
-7.876340449941
 11
383.043095663909
 21
-7.65082811479
 12
383.06117552502
 22
-7.853449683258
 13
383.06117552502
 23
-7.853449683258
  0
SOLID
  8
図面枠
  6
CONTINUOUS
 62
     7
 10
383.06117552502
 20
-7.853449683258
 11
383.043095663909
 21
-7.65082811479
 12
383.06117552502
 22
-7.628774657831
 13
383.06117552502
 23
-7.628774657831
  0
SOLID
  8
図面枠
  6
CONTINUOUS
 62
     7
 10
383.06117552502
 20
-7.853449683258
 11
383.06117552502
 21
-7.628774657831
 12
383.158778525237
 22
-7.729017422318
 13
383.158778525237
 23
-7.729017422318
  0
SOLID
  8
図面枠
  6
CONTINUOUS
 62
     7
 10
383.158778525237
 20
-7.729017422318
 11
383.06117552502
 21
-7.628774657831
 12
383.158778525237
 22
-7.509720448775
 13
383.158778525237
 23
-7.509720448775
  0
SOLID
  8
図面枠
  6
CONTINUOUS
 62
     7
 10
383.158778525237
 20
-7.729017422318
 11
383.158778525237
 21
-7.509720448775
 12
383.180389609221
 22
-7.701465850793
 13
383.180389609221
 23
-7.701465850793
  0
SOLID
  8
図面枠
  6
CONTINUOUS
 62
     7
 10
383.180389609221
 20
-7.701465850793
 11
383.158778525237
 21
-7.509720448775
 12
383.180389609221
 22
-7.482686803424
 13
383.180389609221
 23
-7.482686803424
  0
SOLID
  8
図面枠
  6
CONTINUOUS
 62
     7
 10
383.180389609221
 20
-7.701465850793
 11
383.180389609221
 21
-7.482686803424
 12
383.274461386565
 22
-7.57201665291
 13
383.274461386565
 23
-7.57201665291
  0
SOLID
  8
図面枠
  6
CONTINUOUS
 62
     7
 10
383.274461386565
 20
-7.57201665291
 11
383.180389609221
 21
-7.482686803424
 12
383.274461386565
 22
-7.365010935428
 13
383.274461386565
 23
-7.365010935428
  0
SOLID
  8
図面枠
  6
CONTINUOUS
 62
     7
 10
383.274461386565
 20
-7.57201665291
 11
383.274461386565
 21
-7.365010935428
 12
383.296072470549
 22
-7.542278323666
 13
383.296072470549
 23
-7.542278323666
  0
SOLID
  8
図面枠
  6
CONTINUOUS
 62
     7
 10
383.296072470549
 20
-7.542278323666
 11
383.274461386565
 21
-7.365010935428
 12
383.296072470549
 22
-7.335411921445
 13
383.296072470549
 23
-7.335411921445
  0
SOLID
  8
図面枠
  6
CONTINUOUS
 62
     7
 10
383.296072470549
 20
-7.542278323666
 11
383.296072470549
 21
-7.335411921445
 12
383.382799304317
 22
-7.417890814038
 13
383.382799304317
 23
-7.417890814038
  0
SOLID
  8
図面枠
  6
CONTINUOUS
 62
     7
 10
383.382799304317
 20
-7.417890814038
 11
383.296072470549
 21
-7.335411921445
 12
383.382799304317
 22
-7.216628950294
 13
383.382799304317
 23
-7.216628950294
  0
SOLID
  8
図面枠
  6
CONTINUOUS
 62
     7
 10
383.382799304317
 20
-7.417890814038
 11
383.382799304317
 21
-7.216628950294
 12
383.404551637216
 22
-7.38669264387
 13
383.404551637216
 23
-7.38669264387
  0
SOLID
  8
図面枠
  6
CONTINUOUS
 62
     7
 10
383.404551637216
 20
-7.38669264387
 11
383.382799304317
 21
-7.216628950294
 12
383.404551637216
 22
-7.186875270983
 13
383.404551637216
 23
-7.186875270983
  0
SOLID
  8
図面枠
  6
CONTINUOUS
 62
     7
 10
383.404551637216
 20
-7.38669264387
 11
383.404551637216
 21
-7.186875270983
 12
383.491278470983
 22
-7.253457487113
 13
383.491278470983
 23
-7.253457487113
  0
SOLID
  8
図面枠
  6
CONTINUOUS
 62
     7
 10
383.491278470983
 20
-7.253457487113
 11
383.404551637216
 21
-7.186875270983
 12
383.491278470983
 22
-7.068246965159
 13
383.491278470983
 23
-7.068246965159
  0
SOLID
  8
図面枠
  6
CONTINUOUS
 62
     7
 10
383.491278470983
 20
-7.253457487113
 11
383.491278470983
 21
-7.068246965159
 12
383.505827109221
 22
-7.231106964074
 13
383.505827109221
 23
-7.231106964074
  0
SOLID
  8
図面枠
  6
CONTINUOUS
 62
     7
 10
383.505827109221
 20
-7.231106964074
 11
383.491278470983
 21
-7.068246965159
 12
383.505827109221
 22
-7.04589644212
 13
383.505827109221
 23
-7.04589644212
  0
SOLID
  8
図面枠
  6
CONTINUOUS
 62
     7
 10
383.505827109221
 20
-7.231106964074
 11
383.505827109221
 21
-7.04589644212
 12
383.592553942988
 22
-7.094596989695
 13
383.592553942988
 23
-7.094596989695
  0
SOLID
  8
図面枠
  6
CONTINUOUS
 62
     7
 10
383.592553942988
 20
-7.094596989695
 11
383.505827109221
 21
-7.04589644212
 12
383.592553942988
 22
-6.912661285363
 13
383.592553942988
 23
-6.912661285363
  0
SOLID
  8
図面枠
  6
CONTINUOUS
 62
     7
 10
383.592553942988
 20
-7.094596989695
 11
383.592553942988
 21
-6.912661285363
 12
383.606961332311
 22
-7.071919436948
 13
383.606961332311
 23
-7.071919436948
  0
SOLID
  8
図面枠
  6
CONTINUOUS
 62
     7
 10
383.606961332311
 20
-7.071919436948
 11
383.592553942988
 21
-6.912661285363
 12
383.606961332311
 22
-6.890496844945
 13
383.606961332311
 23
-6.890496844945
  0
SOLID
  8
図面枠
  6
CONTINUOUS
 62
     7
 10
383.606961332311
 20
-7.071919436948
 11
383.606961332311
 21
-6.890496844945
 12
383.693688166079
 22
-6.925095855757
 13
383.693688166079
 23
-6.925095855757
  0
SOLID
  8
図面枠
  6
CONTINUOUS
 62
     7
 10
383.693688166079
 20
-6.925095855757
 11
383.606961332311
 21
-6.890496844945
 12
383.693688166079
 22
-6.757075605567
 13
383.693688166079
 23
-6.757075605567
  0
SOLID
  8
図面枠
  6
CONTINUOUS
 62
     7
 10
383.693688166079
 20
-6.925095855757
 11
383.693688166079
 21
-6.757075605567
 12
383.701033109655
 22
-6.912661285363
 13
383.701033109655
 23
-6.912661285363
  0
SOLID
  8
図面枠
  6
CONTINUOUS
 62
     7
 10
383.701033109655
 20
-6.912661285363
 11
383.693688166079
 21
-6.757075605567
 12
383.701033109655
 22
-6.744646549395
 13
383.701033109655
 23
-6.744646549395
  0
SOLID
  8
図面枠
  6
CONTINUOUS
 62
     7
 10
383.701033109655
 20
-6.912661285363
 11
383.701033109655
 21
-6.744646549395
 12
383.787759943422
 22
-6.753473758237
 13
383.787759943422
 23
-6.753473758237
  0
SOLID
  8
図面枠
  6
CONTINUOUS
 62
     7
 10
383.787759943422
 20
-6.753473758237
 11
383.701033109655
 21
-6.744646549395
 12
383.787759943422
 22
-6.597888078441
 13
383.787759943422
 23
-6.597888078441
  0
SOLID
  8
図面枠
  6
CONTINUOUS
 62
     7
 10
383.787759943422
 20
-6.753473758237
 11
383.787759943422
 21
-6.597888078441
 12
383.870955554317
 22
-6.59428623111
 13
383.870955554317
 23
-6.59428623111
  0
SOLID
  8
図面枠
  6
CONTINUOUS
 62
     7
 10
383.870955554317
 20
-6.59428623111
 11
383.787759943422
 21
-6.597888078441
 12
383.870955554317
 22
-6.451385807382
 13
383.870955554317
 23
-6.451385807382
  0
SOLID
  8
図面枠
  6
CONTINUOUS
 62
     7
 10
383.870955554317
 20
-6.59428623111
 11
383.870955554317
 21
-6.451385807382
 12
383.878159248978
 22
-6.57983397892
 13
383.878159248978
 23
-6.57983397892
  0
SOLID
  8
図面枠
  6
CONTINUOUS
 62
     7
 10
383.878159248978
 20
-6.57983397892
 11
383.870955554317
 21
-6.451385807382
 12
383.878159248978
 22
-6.438700551314
 13
383.878159248978
 23
-6.438700551314
  0
SOLID
  8
図面枠
  6
CONTINUOUS
 62
     7
 10
383.878159248978
 20
-6.57983397892
 11
383.878159248978
 21
-6.438700551314
 12
383.906974027624
 22
-6.52202497016
 13
383.906974027624
 23
-6.52202497016
  0
SOLID
  8
図面枠
  6
CONTINUOUS
 62
     7
 10
383.906974027624
 20
-6.52202497016
 11
383.878159248978
 21
-6.438700551314
 12
383.906974027624
 22
-6.387992190854
 13
383.906974027624
 23
-6.387992190854
  0
SOLID
  8
図面枠
  6
CONTINUOUS
 62
     7
 10
383.906974027624
 20
-6.52202497016
 11
383.906974027624
 21
-6.387992190854
 12
383.950337444508
 22
-6.435028079526
 13
383.950337444508
 23
-6.435028079526
  0
ENDBLK
  8
0
  0
BLOCK
  8
0
  2
*U36
 70
     1
 10
0.0
 20
0.0
  0
SOLID
  8
図面枠
  6
CONTINUOUS
 62
     7
 10
388.761840482702
 20
-8.848548288944
 11
388.714945842945
 21
-8.772556372711
 12
388.761840482702
 22
-8.686986754216
 13
388.761840482702
 23
-8.686986754216
  0
SOLID
  8
図面枠
  6
CONTINUOUS
 62
     7
 10
388.761840482702
 20
-5.609009709835
 11
388.714945842945
 21
-5.523195709191
 12
388.761840482702
 22
-5.450876264747
 13
388.761840482702
 23
-5.450876264747
  0
SOLID
  8
図面枠
  6
CONTINUOUS
 62
     7
 10
388.761840482702
 20
-8.848548288944
 11
388.761840482702
 21
-8.686986754216
 12
388.798000204924
 22
-8.790636233823
 13
388.798000204924
 23
-8.790636233823
  0
SOLID
  8
図面枠
  6
CONTINUOUS
 62
     7
 10
388.798000204924
 20
-8.790636233823
 11
388.761840482702
 21
-8.686986754216
 12
388.798000204924
 22
-8.621005361642
 13
388.798000204924
 23
-8.621005361642
  0
SOLID
  8
図面枠
  6
CONTINUOUS
 62
     7
 10
388.761840482702
 20
-5.609009709835
 11
388.761840482702
 21
-5.450876264747
 12
388.798000204924
 22
-5.675179541657
 13
388.798000204924
 23
-5.675179541657
  0
SOLID
  8
図面枠
  6
CONTINUOUS
 62
     7
 10
388.798000204924
 20
-5.675179541657
 11
388.761840482702
 21
-5.450876264747
 12
388.798000204924
 22
-5.511166009937
 13
388.798000204924
 23
-5.511166009937
  0
SOLID
  8
図面枠
  6
CONTINUOUS
 62
     7
 10
388.798000204924
 20
-8.790636233823
 11
388.798000204924
 21
-8.621005361642
 12
388.816080066035
 22
-8.761680206262
 13
388.816080066035
 23
-8.761680206262
  0
SOLID
  8
図面枠
  6
CONTINUOUS
 62
     7
 10
388.816080066035
 20
-8.761680206262
 11
388.798000204924
 21
-8.621005361642
 12
388.816080066035
 22
-8.588014665355
 13
388.816080066035
 23
-8.588014665355
  0
SOLID
  8
図面枠
  6
CONTINUOUS
 62
     7
 10
388.798000204924
 20
-5.675179541657
 11
388.798000204924
 21
-5.511166009937
 12
388.816080066035
 22
-5.715102226842
 13
388.816080066035
 23
-5.715102226842
  0
SOLID
  8
図面枠
  6
CONTINUOUS
 62
     7
 10
388.816080066035
 20
-5.715102226842
 11
388.798000204924
 21
-5.511166009937
 12
388.816080066035
 22
-5.541310882531
 13
388.816080066035
 23
-5.541310882531
  0
SOLID
  8
図面枠
  6
CONTINUOUS
 62
     7
 10
388.816080066035
 20
-8.761680206262
 11
388.816080066035
 21
-8.588014665355
 12
388.870319649369
 22
-8.666176142077
 13
388.870319649369
 23
-8.666176142077
  0
SOLID
  8
図面枠
  6
CONTINUOUS
 62
     7
 10
388.870319649369
 20
-8.666176142077
 11
388.816080066035
 21
-8.588014665355
 12
388.870319649369
 22
-8.46300577847
 13
388.870319649369
 23
-8.46300577847
  0
SOLID
  8
図面枠
  6
CONTINUOUS
 62
     7
 10
388.816080066035
 20
-5.715102226842
 11
388.816080066035
 21
-5.541310882531
 12
388.870319649369
 22
-5.834870282398
 13
388.870319649369
 23
-5.834870282398
  0
SOLID
  8
図面枠
  6
CONTINUOUS
 62
     7
 10
388.870319649369
 20
-5.834870282398
 11
388.816080066035
 21
-5.541310882531
 12
388.870319649369
 22
-5.631745500316
 13
388.870319649369
 23
-5.631745500316
  0
SOLID
  8
図面枠
  6
CONTINUOUS
 62
     7
 10
388.870319649369
 20
-8.666176142077
 11
388.870319649369
 21
-8.46300577847
 12
388.884868287607
 22
-8.640559166528
 13
388.884868287607
 23
-8.640559166528
  0
SOLID
  8
図面枠
  6
CONTINUOUS
 62
     7
 10
388.884868287607
 20
-8.640559166528
 11
388.870319649369
 21
-8.46300577847
 12
388.884868287607
 22
-8.429474748915
 13
388.884868287607
 23
-8.429474748915
  0
SOLID
  8
図面枠
  6
CONTINUOUS
 62
     7
 10
388.870319649369
 20
-5.834870282398
 11
388.870319649369
 21
-5.631745500316
 12
388.884868287607
 22
-5.866995568132
 13
388.884868287607
 23
-5.866995568132
  0
SOLID
  8
図面枠
  6
CONTINUOUS
 62
     7
 10
388.884868287607
 20
-5.866995568132
 11
388.870319649369
 21
-5.631745500316
 12
388.884868287607
 22
-5.659800580564
 13
388.884868287607
 23
-5.659800580564
  0
SOLID
  8
図面枠
  6
CONTINUOUS
 62
     7
 10
388.884868287607
 20
-8.640559166528
 11
388.884868287607
 21
-8.429474748915
 12
388.899275676929
 22
-8.615190899479
 13
388.899275676929
 23
-8.615190899479
  0
SOLID
  8
図面枠
  6
CONTINUOUS
 62
     7
 10
388.899275676929
 20
-8.615190899479
 11
388.884868287607
 21
-8.429474748915
 12
388.899275676929
 22
-8.396269263336
 13
388.899275676929
 23
-8.396269263336
  0
SOLID
  8
図面枠
  6
CONTINUOUS
 62
     7
 10
388.884868287607
 20
-5.866995568132
 11
388.884868287607
 21
-5.659800580564
 12
388.899275676929
 22
-5.906707520894
 13
388.899275676929
 23
-5.906707520894
  0
SOLID
  8
図面枠
  6
CONTINUOUS
 62
     7
 10
388.899275676929
 20
-5.906707520894
 11
388.884868287607
 21
-5.659800580564
 12
388.899275676929
 22
-5.687583281393
 13
388.899275676929
 23
-5.687583281393
  0
SOLID
  8
図面枠
  6
CONTINUOUS
 62
     7
 10
388.899275676929
 20
-8.615190899479
 11
388.899275676929
 21
-8.396269263336
 12
388.920886760914
 22
-8.577138498905
 13
388.920886760914
 23
-8.577138498905
  0
SOLID
  8
図面枠
  6
CONTINUOUS
 62
     7
 10
388.920886760914
 20
-8.577138498905
 11
388.899275676929
 21
-8.396269263336
 12
388.920886760914
 22
-8.336796573231
 13
388.920886760914
 23
-8.336796573231
  0
SOLID
  8
図面枠
  6
CONTINUOUS
 62
     7
 10
388.899275676929
 20
-5.906707520894
 11
388.899275676929
 21
-5.687583281393
 12
388.920886760914
 22
-5.966275450037
 13
388.920886760914
 23
-5.966275450037
  0
SOLID
  8
図面枠
  6
CONTINUOUS
 62
     7
 10
388.920886760914
 20
-5.966275450037
 11
388.899275676929
 21
-5.687583281393
 12
388.920886760914
 22
-5.729257332637
 13
388.920886760914
 23
-5.729257332637
  0
SOLID
  8
図面枠
  6
CONTINUOUS
 62
     7
 10
388.920886760914
 20
-8.577138498905
 11
388.920886760914
 21
-8.336796573231
 12
388.957046483136
 22
-8.50188107703
 13
388.957046483136
 23
-8.50188107703
  0
SOLID
  8
図面枠
  6
CONTINUOUS
 62
     7
 10
388.957046483136
 20
-8.50188107703
 11
388.920886760914
 21
-8.336796573231
 12
388.957046483136
 22
-8.237286712663
 13
388.957046483136
 23
-8.237286712663
  0
SOLID
  8
図面枠
  6
CONTINUOUS
 62
     7
 10
388.920886760914
 20
-5.966275450037
 11
388.920886760914
 21
-5.729257332637
 12
388.957046483136
 22
-6.065944664812
 13
388.957046483136
 23
-6.065944664812
  0
SOLID
  8
図面枠
  6
CONTINUOUS
 62
     7
 10
388.957046483136
 20
-6.065944664812
 11
388.920886760914
 21
-5.729257332637
 12
388.957046483136
 22
-5.798986464129
 13
388.957046483136
 23
-5.798986464129
  0
SOLID
  8
図面枠
  6
CONTINUOUS
 62
     7
 10
388.957046483136
 20
-8.50188107703
 11
388.957046483136
 21
-8.237286712663
 12
388.967922649586
 22
-8.479245055607
 13
388.967922649586
 23
-8.479245055607
  0
SOLID
  8
図面枠
  6
CONTINUOUS
 62
     7
 10
388.967922649586
 20
-8.479245055607
 11
388.957046483136
 21
-8.237286712663
 12
388.967922649586
 22
-8.207356012413
 13
388.967922649586
 23
-8.207356012413
  0
SOLID
  8
図面枠
  6
CONTINUOUS
 62
     7
 10
388.957046483136
 20
-6.065944664812
 11
388.957046483136
 21
-5.798986464129
 12
388.967922649586
 22
-6.10174122182
 13
388.967922649586
 23
-6.10174122182
  0
SOLID
  8
図面枠
  6
CONTINUOUS
 62
     7
 10
388.967922649586
 20
-6.10174122182
 11
388.957046483136
 21
-5.798986464129
 12
388.967922649586
 22
-5.819959679461
 13
388.967922649586
 23
-5.819959679461
  0
SOLID
  8
図面枠
  6
CONTINUOUS
 62
     7
 10
388.967922649586
 20
-8.479245055607
 11
388.967922649586
 21
-8.207356012413
 12
388.971595121374
 22
-8.471601723697
 13
388.971595121374
 23
-8.471601723697
  0
SOLID
  8
図面枠
  6
CONTINUOUS
 62
     7
 10
388.971595121374
 20
-8.471601723697
 11
388.967922649586
 21
-8.207356012413
 12
388.971595121374
 22
-8.197249542199
 13
388.971595121374
 23
-8.197249542199
  0
SOLID
  8
図面枠
  6
CONTINUOUS
 62
     7
 10
388.967922649586
 20
-6.10174122182
 11
388.967922649586
 21
-5.819959679461
 12
388.971595121374
 22
-6.113828370939
 13
388.971595121374
 23
-6.113828370939
  0
SOLID
  8
図面枠
  6
CONTINUOUS
 62
     7
 10
388.971595121374
 20
-6.113828370939
 11
388.967922649586
 21
-5.819959679461
 12
388.971595121374
 22
-5.828423822844
 13
388.971595121374
 23
-5.828423822844
  0
SOLID
  8
図面枠
  6
CONTINUOUS
 62
     7
 10
388.971595121374
 20
-8.471601723697
 11
388.971595121374
 21
-8.197249542199
 12
389.011286066469
 22
-8.388994944218
 13
389.011286066469
 23
-8.388994944218
  0
SOLID
  8
図面枠
  6
CONTINUOUS
 62
     7
 10
389.011286066469
 20
-8.388994944218
 11
388.971595121374
 21
-8.197249542199
 12
389.011286066469
 22
-8.055516961975
 13
389.011286066469
 23
-8.055516961975
  0
SOLID
  8
図面枠
  6
CONTINUOUS
 62
     7
 10
388.971595121374
 20
-6.113828370939
 11
388.971595121374
 21
-5.828423822844
 12
389.011286066469
 22
-6.244462559499
 13
389.011286066469
 23
-6.244462559499
  0
SOLID
  8
図面枠
  6
CONTINUOUS
 62
     7
 10
389.011286066469
 20
-6.244462559499
 11
388.971595121374
 21
-5.828423822844
 12
389.011286066469
 22
-5.919901680173
 13
389.011286066469
 23
-5.919901680173
  0
SOLID
  8
図面枠
  6
CONTINUOUS
 62
     7
 10
389.011286066469
 20
-8.388994944218
 11
389.011286066469
 21
-8.055516961975
 12
389.018631010046
 22
-8.370106971284
 13
389.018631010046
 23
-8.370106971284
  0
SOLID
  8
図面枠
  6
CONTINUOUS
 62
     7
 10
389.018631010046
 20
-8.370106971284
 11
389.011286066469
 21
-8.055516961975
 12
389.018631010046
 22
-8.029288868837
 13
389.018631010046
 23
-8.029288868837
  0
SOLID
  8
図面枠
  6
CONTINUOUS
 62
     7
 10
389.011286066469
 20
-6.244462559499
 11
389.011286066469
 21
-5.919901680173
 12
389.018631010046
 22
-6.268636857737
 13
389.018631010046
 23
-6.268636857737
  0
SOLID
  8
図面枠
  6
CONTINUOUS
 62
     7
 10
389.018631010046
 20
-6.268636857737
 11
389.011286066469
 21
-5.919901680173
 12
389.018631010046
 22
-5.936829966939
 13
389.018631010046
 23
-5.936829966939
  0
SOLID
  8
図面枠
  6
CONTINUOUS
 62
     7
 10
389.018631010046
 20
-8.370106971284
 11
389.018631010046
 21
-8.029288868837
 12
389.02936592758
 22
-8.342501472383
 13
389.02936592758
 23
-8.342501472383
  0
SOLID
  8
図面枠
  6
CONTINUOUS
 62
     7
 10
389.02936592758
 20
-8.342501472383
 11
389.018631010046
 21
-8.029288868837
 12
389.02936592758
 22
-7.990955501943
 13
389.02936592758
 23
-7.990955501943
  0
SOLID
  8
図面枠
  6
CONTINUOUS
 62
     7
 10
389.018631010046
 20
-6.268636857737
 11
389.018631010046
 21
-5.936829966939
 12
389.02936592758
 22
-6.316669146888
 13
389.02936592758
 23
-6.316669146888
  0
SOLID
  8
図面枠
  6
CONTINUOUS
 62
     7
 10
389.02936592758
 20
-6.316669146888
 11
389.018631010046
 21
-5.936829966939
 12
389.02936592758
 22
-5.961571309135
 13
389.02936592758
 23
-5.961571309135
  0
SOLID
  8
図面枠
  6
CONTINUOUS
 62
     7
 10
389.02936592758
 20
-8.342501472383
 11
389.02936592758
 21
-7.990955501943
 12
389.05111826048
 22
-8.286564014081
 13
389.05111826048
 23
-8.286564014081
  0
SOLID
  8
図面枠
  6
CONTINUOUS
 62
     7
 10
389.05111826048
 20
-8.286564014081
 11
389.02936592758
 21
-7.990955501943
 12
389.05111826048
 22
-7.885701135422
 13
389.05111826048
 23
-7.885701135422
  0
SOLID
  8
図面枠
  6
CONTINUOUS
 62
     7
 10
389.02936592758
 20
-6.316669146888
 11
389.02936592758
 21
-5.961571309135
 12
389.05111826048
 22
-6.413997732797
 13
389.05111826048
 23
-6.413997732797
  0
SOLID
  8
図面枠
  6
CONTINUOUS
 62
     7
 10
389.05111826048
 20
-6.413997732797
 11
389.02936592758
 21
-5.961571309135
 12
389.05111826048
 22
-6.011705081479
 13
389.05111826048
 23
-6.011705081479
  0
SOLID
  8
図面枠
  6
CONTINUOUS
 62
     7
 10
389.05111826048
 20
-8.286564014081
 11
389.05111826048
 21
-7.885701135422
 12
389.065525649803
 22
-8.249514528713
 13
389.065525649803
 23
-8.249514528713
  0
SOLID
  8
図面枠
  6
CONTINUOUS
 62
     7
 10
389.065525649803
 20
-8.249514528713
 11
389.05111826048
 21
-7.885701135422
 12
389.065525649803
 22
-7.81598720435
 13
389.065525649803
 23
-7.81598720435
  0
SOLID
  8
図面枠
  6
CONTINUOUS
 62
     7
 10
389.05111826048
 20
-6.413997732797
 11
389.05111826048
 21
-6.011705081479
 12
389.065525649803
 22
-6.478462120867
 13
389.065525649803
 23
-6.478462120867
  0
SOLID
  8
図面枠
  6
CONTINUOUS
 62
     7
 10
389.065525649803
 20
-6.478462120867
 11
389.05111826048
 21
-6.011705081479
 12
389.065525649803
 22
-6.052718709315
 13
389.065525649803
 23
-6.052718709315
  0
SOLID
  8
図面枠
  6
CONTINUOUS
 62
     7
 10
389.065525649803
 20
-8.249514528713
 11
389.065525649803
 21
-7.81598720435
 12
389.072729344464
 22
-8.230989786028
 13
389.072729344464
 23
-8.230989786028
  0
SOLID
  8
図面枠
  6
CONTINUOUS
 62
     7
 10
389.072729344464
 20
-8.230989786028
 11
389.065525649803
 21
-7.81598720435
 12
389.072729344464
 22
-7.781130238814
 13
389.072729344464
 23
-7.781130238814
  0
SOLID
  8
図面枠
  6
CONTINUOUS
 62
     7
 10
389.065525649803
 20
-6.478462120867
 11
389.065525649803
 21
-6.052718709315
 12
389.072729344464
 22
-6.526393197467
 13
389.072729344464
 23
-6.526393197467
  0
SOLID
  8
図面枠
  6
CONTINUOUS
 62
     7
 10
389.072729344464
 20
-6.526393197467
 11
389.065525649803
 21
-6.052718709315
 12
389.072729344464
 22
-6.073225523233
 13
389.072729344464
 23
-6.073225523233
  0
SOLID
  8
図面枠
  6
CONTINUOUS
 62
     7
 10
389.072729344464
 20
-8.230989786028
 11
389.072729344464
 21
-7.781130238814
 12
389.087277982702
 22
-8.193577070411
 13
389.087277982702
 23
-8.193577070411
  0
SOLID
  8
図面枠
  6
CONTINUOUS
 62
     7
 10
389.087277982702
 20
-8.193577070411
 11
389.072729344464
 21
-7.781130238814
 12
389.087277982702
 22
-7.682690751516
 13
389.087277982702
 23
-7.682690751516
  0
SOLID
  8
図面枠
  6
CONTINUOUS
 62
     7
 10
389.072729344464
 20
-6.526393197467
 11
389.072729344464
 21
-6.073225523233
 12
389.087277982702
 22
-6.623195175699
 13
389.087277982702
 23
-6.623195175699
  0
SOLID
  8
図面枠
  6
CONTINUOUS
 62
     7
 10
389.087277982702
 20
-6.623195175699
 11
389.072729344464
 21
-6.073225523233
 12
389.087277982702
 22
-6.114641245459
 13
389.087277982702
 23
-6.114641245459
  0
SOLID
  8
図面枠
  6
CONTINUOUS
 62
     7
 10
389.087277982702
 20
-8.193577070411
 11
389.087277982702
 21
-7.682690751516
 12
389.098154149152
 22
-8.158348292187
 13
389.098154149152
 23
-8.158348292187
  0
SOLID
  8
図面枠
  6
CONTINUOUS
 62
     7
 10
389.098154149152
 20
-8.158348292187
 11
389.087277982702
 21
-7.682690751516
 12
389.098154149152
 22
-7.609100066838
 13
389.098154149152
 23
-7.609100066838
  0
SOLID
  8
図面枠
  6
CONTINUOUS
 62
     7
 10
389.087277982702
 20
-6.623195175699
 11
389.087277982702
 21
-6.114641245459
 12
389.098154149152
 22
-6.695561703115
 13
389.098154149152
 23
-6.695561703115
  0
SOLID
  8
図面枠
  6
CONTINUOUS
 62
     7
 10
389.098154149152
 20
-6.695561703115
 11
389.087277982702
 21
-6.114641245459
 12
389.098154149152
 22
-6.145602513531
 13
389.098154149152
 23
-6.145602513531
  0
SOLID
  8
図面枠
  6
CONTINUOUS
 62
     7
 10
389.098154149152
 20
-8.158348292187
 11
389.098154149152
 21
-7.609100066838
 12
389.105357843813
 22
-8.135014945571
 13
389.105357843813
 23
-8.135014945571
  0
SOLID
  8
図面枠
  6
CONTINUOUS
 62
     7
 10
389.105357843813
 20
-8.135014945571
 11
389.098154149152
 21
-7.609100066838
 12
389.105357843813
 22
-7.560358184777
 13
389.105357843813
 23
-7.560358184777
  0
SOLID
  8
図面枠
  6
CONTINUOUS
 62
     7
 10
389.098154149152
 20
-6.695561703115
 11
389.098154149152
 21
-6.145602513531
 12
389.105357843813
 22
-6.770353003571
 13
389.105357843813
 23
-6.770353003571
  0
SOLID
  8
図面枠
  6
CONTINUOUS
 62
     7
 10
389.105357843813
 20
-6.770353003571
 11
389.098154149152
 21
-6.145602513531
 12
389.105357843813
 22
-6.166109327449
 13
389.105357843813
 23
-6.166109327449
  0
SOLID
  8
図面枠
  6
CONTINUOUS
 62
     7
 10
389.105357843813
 20
-8.135014945571
 11
389.105357843813
 21
-7.560358184777
 12
389.119765233136
 22
-8.088348252339
 13
389.119765233136
 23
-8.088348252339
  0
SOLID
  8
図面枠
  6
CONTINUOUS
 62
     7
 10
389.119765233136
 20
-8.088348252339
 11
389.105357843813
 21
-7.560358184777
 12
389.119765233136
 22
-7.384486733082
 13
389.119765233136
 23
-7.384486733082
  0
SOLID
  8
図面枠
  6
CONTINUOUS
 62
     7
 10
389.105357843813
 20
-6.770353003571
 11
389.105357843813
 21
-6.166109327449
 12
389.119765233136
 22
-6.919935604482
 13
389.119765233136
 23
-6.919935604482
  0
SOLID
  8
図面枠
  6
CONTINUOUS
 62
     7
 10
389.119765233136
 20
-6.919935604482
 11
389.105357843813
 21
-6.166109327449
 12
389.119765233136
 22
-6.207122955285
 13
389.119765233136
 23
-6.207122955285
  0
SOLID
  8
図面枠
  6
CONTINUOUS
 62
     7
 10
389.119765233136
 20
-8.088348252339
 11
389.119765233136
 21
-7.384486733082
 12
389.123437704924
 22
-8.07645282073
 13
389.123437704924
 23
-8.07645282073
  0
SOLID
  8
図面枠
  6
CONTINUOUS
 62
     7
 10
389.123437704924
 20
-8.07645282073
 11
389.119765233136
 21
-7.384486733082
 12
389.123437704924
 22
-7.339656755198
 13
389.123437704924
 23
-7.339656755198
  0
SOLID
  8
図面枠
  6
CONTINUOUS
 62
     7
 10
389.119765233136
 20
-6.919935604482
 11
389.119765233136
 21
-6.207122955285
 12
389.123437704924
 22
-7.036158535192
 13
389.123437704924
 23
-7.036158535192
  0
SOLID
  8
図面枠
  6
CONTINUOUS
 62
     7
 10
389.123437704924
 20
-7.036158535192
 11
389.119765233136
 21
-6.207122955285
 12
389.123437704924
 22
-6.21997212792
 13
389.123437704924
 23
-6.21997212792
  0
SOLID
  8
図面枠
  6
CONTINUOUS
 62
     7
 10
389.123437704924
 20
-8.07645282073
 11
389.123437704924
 21
-7.339656755198
 12
389.126968927797
 22
-8.065014905723
 13
389.126968927797
 23
-8.065014905723
  0
SOLID
  8
図面枠
  6
CONTINUOUS
 62
     7
 10
389.126968927797
 20
-8.065014905723
 11
389.123437704924
 21
-7.339656755198
 12
389.126968927797
 22
-7.14791135318
 13
389.126968927797
 23
-7.14791135318
  0
SOLID
  8
図面枠
  6
CONTINUOUS
 62
     7
 10
389.123437704924
 20
-7.036158535192
 11
389.123437704924
 21
-6.21997212792
 12
389.126968927797
 22
-7.14791135318
 13
389.126968927797
 23
-7.14791135318
  0
SOLID
  8
図面枠
  6
CONTINUOUS
 62
     7
 10
389.126968927797
 20
-7.14791135318
 11
389.123437704924
 21
-6.21997212792
 12
389.126968927797
 22
-6.232327101607
 13
389.126968927797
 23
-6.232327101607
  0
SOLID
  8
図面枠
  6
CONTINUOUS
 62
     7
 10
389.126968927797
 20
-8.065014905723
 11
389.126968927797
 21
-6.232327101607
 12
389.148721260697
 22
-7.994557349274
 13
389.148721260697
 23
-7.994557349274
  0
SOLID
  8
図面枠
  6
CONTINUOUS
 62
     7
 10
389.148721260697
 20
-7.994557349274
 11
389.126968927797
 21
-6.232327101607
 12
389.148721260697
 22
-6.308433739519
 13
389.148721260697
 23
-6.308433739519
  0
SOLID
  8
図面枠
  6
CONTINUOUS
 62
     7
 10
389.148721260697
 20
-7.994557349274
 11
389.148721260697
 21
-6.308433739519
 12
389.177677288258
 22
-7.878531032134
 13
389.177677288258
 23
-7.878531032134
  0
SOLID
  8
図面枠
  6
CONTINUOUS
 62
     7
 10
389.177677288258
 20
-7.878531032134
 11
389.148721260697
 21
-6.308433739519
 12
389.177677288258
 22
-6.409744523753
 13
389.177677288258
 23
-6.409744523753
  0
SOLID
  8
図面枠
  6
CONTINUOUS
 62
     7
 10
389.177677288258
 20
-7.878531032134
 11
389.177677288258
 21
-6.409744523753
 12
389.199288372242
 22
-7.791935780806
 13
389.199288372242
 23
-7.791935780806
  0
SOLID
  8
図面枠
  6
CONTINUOUS
 62
     7
 10
389.199288372242
 20
-7.791935780806
 11
389.177677288258
 21
-6.409744523753
 12
389.199288372242
 22
-6.522029871145
 13
389.199288372242
 23
-6.522029871145
  0
SOLID
  8
図面枠
  6
CONTINUOUS
 62
     7
 10
389.199288372242
 20
-7.791935780806
 11
389.199288372242
 21
-6.522029871145
 12
389.217368233353
 22
-7.675668968336
 13
389.217368233353
 23
-7.675668968336
  0
SOLID
  8
図面枠
  6
CONTINUOUS
 62
     7
 10
389.217368233353
 20
-7.675668968336
 11
389.199288372242
 21
-6.522029871145
 12
389.217368233353
 22
-6.615967939552
 13
389.217368233353
 23
-6.615967939552
  0
SOLID
  8
図面枠
  6
CONTINUOUS
 62
     7
 10
389.217368233353
 20
-7.675668968336
 11
389.217368233353
 21
-6.615967939552
 12
389.231916871591
 22
-7.582110517677
 13
389.231916871591
 23
-7.582110517677
  0
SOLID
  8
図面枠
  6
CONTINUOUS
 62
     7
 10
389.231916871591
 20
-7.582110517677
 11
389.217368233353
 21
-6.615967939552
 12
389.231916871591
 22
-6.723237533193
 13
389.231916871591
 23
-6.723237533193
  0
SOLID
  8
図面枠
  6
CONTINUOUS
 62
     7
 10
389.231916871591
 20
-7.582110517677
 11
389.231916871591
 21
-6.723237533193
 12
389.246324260914
 22
-7.439778694399
 13
389.246324260914
 23
-7.439778694399
  0
SOLID
  8
図面枠
  6
CONTINUOUS
 62
     7
 10
389.246324260914
 20
-7.439778694399
 11
389.231916871591
 21
-6.723237533193
 12
389.246324260914
 22
-6.829465674469
 13
389.246324260914
 23
-6.829465674469
  0
SOLID
  8
図面枠
  6
CONTINUOUS
 62
     7
 10
389.246324260914
 20
-7.439778694399
 11
389.246324260914
 21
-6.829465674469
 12
389.253527955575
 22
-7.368612782759
 13
389.253527955575
 23
-7.368612782759
  0
SOLID
  8
図面枠
  6
CONTINUOUS
 62
     7
 10
389.253527955575
 20
-7.368612782759
 11
389.246324260914
 21
-6.829465674469
 12
389.253527955575
 22
-6.936214541928
 13
389.253527955575
 23
-6.936214541928
  0
SOLID
  8
図面枠
  6
CONTINUOUS
 62
     7
 10
389.253527955575
 20
-7.368612782759
 11
389.253527955575
 21
-6.936214541928
 12
389.260731650237
 22
-7.14791135318
 13
389.260731650237
 23
-7.14791135318
  0
SOLID
  8
図面枠
  6
CONTINUOUS
 62
     7
 10
389.260731650237
 20
-7.14791135318
 11
389.253527955575
 21
-6.936214541928
 12
389.260731650237
 22
-7.042963409387
 13
389.260731650237
 23
-7.042963409387
  0
ENDBLK
  8
0
  0
BLOCK
  8
0
  2
*U37
 70
     1
 10
0.0
 20
0.0
  0
SOLID
  8
図面枠
  6
CONTINUOUS
 62
     7
 10
386.9652955337
 20
-8.118766840891
 11
386.903852255705
 21
-8.103177764856
 12
386.9652955337
 22
-8.081425431956
 13
386.9652955337
 23
-8.081425431956
  0
SOLID
  8
図面枠
  6
CONTINUOUS
 62
     7
 10
386.9652955337
 20
-8.118766840891
 11
386.9652955337
 21
-8.081425431956
 12
387.062898533917
 22
-8.143530177765
 13
387.062898533917
 23
-8.143530177765
  0
SOLID
  8
図面枠
  6
CONTINUOUS
 62
     7
 10
387.062898533917
 20
-8.143530177765
 11
386.9652955337
 21
-8.081425431956
 12
387.062898533917
 22
-8.009035363054
 13
387.062898533917
 23
-8.009035363054
  0
SOLID
  8
図面枠
  6
CONTINUOUS
 62
     7
 10
387.062898533917
 20
-8.143530177765
 11
387.062898533917
 21
-8.009035363054
 12
387.160501534134
 22
-8.168293514639
 13
387.160501534134
 23
-8.168293514639
  0
SOLID
  8
図面枠
  6
CONTINUOUS
 62
     7
 10
387.160501534134
 20
-8.168293514639
 11
387.062898533917
 21
-8.009035363054
 12
387.160501534134
 22
-7.922188828116
 13
387.160501534134
 23
-7.922188828116
  0
SOLID
  8
図面枠
  6
CONTINUOUS
 62
     7
 10
387.160501534134
 20
-8.168293514639
 11
387.160501534134
 21
-7.922188828116
 12
387.192988784568
 22
-8.135768922537
 13
387.192988784568
 23
-8.135768922537
  0
SOLID
  8
図面枠
  6
CONTINUOUS
 62
     7
 10
387.192988784568
 20
-8.135768922537
 11
387.160501534134
 21
-7.922188828116
 12
387.192988784568
 22
-7.893281877269
 13
387.192988784568
 23
-7.893281877269
  0
SOLID
  8
図面枠
  6
CONTINUOUS
 62
     7
 10
387.192988784568
 20
-8.135768922537
 11
387.192988784568
 21
-7.893281877269
 12
387.283388090124
 22
-8.045265709734
 13
387.283388090124
 23
-8.045265709734
  0
SOLID
  8
図面枠
  6
CONTINUOUS
 62
     7
 10
387.283388090124
 20
-8.045265709734
 11
387.192988784568
 21
-7.893281877269
 12
387.283388090124
 22
-7.804844362198
 13
387.283388090124
 23
-7.804844362198
  0
SOLID
  8
図面枠
  6
CONTINUOUS
 62
     7
 10
387.283388090124
 20
-8.045265709734
 11
387.283388090124
 21
-7.804844362198
 12
387.355707534568
 22
-7.966313416835
 13
387.355707534568
 23
-7.966313416835
  0
SOLID
  8
図面枠
  6
CONTINUOUS
 62
     7
 10
387.355707534568
 20
-7.966313416835
 11
387.283388090124
 21
-7.804844362198
 12
387.355707534568
 22
-7.734094350142
 13
387.355707534568
 23
-7.734094350142
  0
SOLID
  8
図面枠
  6
CONTINUOUS
 62
     7
 10
387.355707534568
 20
-7.966313416835
 11
387.355707534568
 21
-7.734094350142
 12
387.40274342324
 22
-7.914963585711
 13
387.40274342324
 23
-7.914963585711
  0
SOLID
  8
図面枠
  6
CONTINUOUS
 62
     7
 10
387.40274342324
 20
-7.914963585711
 11
387.355707534568
 21
-7.734094350142
 12
387.40274342324
 22
-7.684377262604
 13
387.40274342324
 23
-7.684377262604
  0
SOLID
  8
図面枠
  6
CONTINUOUS
 62
     7
 10
387.40274342324
 20
-7.914963585711
 11
387.40274342324
 21
-7.684377262604
 12
387.485797785219
 22
-7.821724239768
 13
387.485797785219
 23
-7.821724239768
  0
SOLID
  8
図面枠
  6
CONTINUOUS
 62
     7
 10
387.485797785219
 20
-7.821724239768
 11
387.40274342324
 21
-7.684377262604
 12
387.485797785219
 22
-7.596588531457
 13
387.485797785219
 23
-7.596588531457
  0
SOLID
  8
図面枠
  6
CONTINUOUS
 62
     7
 10
387.485797785219
 20
-7.821724239768
 11
387.485797785219
 21
-7.596588531457
 12
387.521957507442
 22
-7.781130238814
 13
387.521957507442
 23
-7.781130238814
  0
SOLID
  8
図面枠
  6
CONTINUOUS
 62
     7
 10
387.521957507442
 20
-7.781130238814
 11
387.485797785219
 21
-7.596588531457
 12
387.521957507442
 22
-7.555579263156
 13
387.521957507442
 23
-7.555579263156
  0
SOLID
  8
図面枠
  6
CONTINUOUS
 62
     7
 10
387.521957507442
 20
-7.781130238814
 11
387.521957507442
 21
-7.555579263156
 12
387.594276951886
 22
-7.695168115289
 13
387.594276951886
 23
-7.695168115289
  0
SOLID
  8
図面枠
  6
CONTINUOUS
 62
     7
 10
387.594276951886
 20
-7.695168115289
 11
387.521957507442
 21
-7.555579263156
 12
387.594276951886
 22
-7.473560726553
 13
387.594276951886
 23
-7.473560726553
  0
SOLID
  8
図面枠
  6
CONTINUOUS
 62
     7
 10
387.594276951886
 20
-7.695168115289
 11
387.594276951886
 21
-7.473560726553
 12
387.63764036877
 22
-7.643624420129
 13
387.63764036877
 23
-7.643624420129
  0
SOLID
  8
図面枠
  6
CONTINUOUS
 62
     7
 10
387.63764036877
 20
-7.643624420129
 11
387.594276951886
 21
-7.473560726553
 12
387.63764036877
 22
-7.424537645548
 13
387.63764036877
 23
-7.424537645548
  0
SOLID
  8
図面枠
  6
CONTINUOUS
 62
     7
 10
387.63764036877
 20
-7.643624420129
 11
387.63764036877
 21
-7.424537645548
 12
387.706287341426
 22
-7.557144816493
 13
387.706287341426
 23
-7.557144816493
  0
SOLID
  8
図面枠
  6
CONTINUOUS
 62
     7
 10
387.706287341426
 20
-7.557144816493
 11
387.63764036877
 21
-7.424537645548
 12
387.706287341426
 22
-7.346931074317
 13
387.706287341426
 23
-7.346931074317
  0
SOLID
  8
図面枠
  6
CONTINUOUS
 62
     7
 10
387.706287341426
 20
-7.557144816493
 11
387.706287341426
 21
-7.346931074317
 12
387.74965075831
 22
-7.502516754113
 13
387.74965075831
 23
-7.502516754113
  0
SOLID
  8
図面枠
  6
CONTINUOUS
 62
     7
 10
387.74965075831
 20
-7.502516754113
 11
387.706287341426
 21
-7.346931074317
 12
387.74965075831
 22
-7.29196455565
 13
387.74965075831
 23
-7.29196455565
  0
SOLID
  8
図面枠
  6
CONTINUOUS
 62
     7
 10
387.74965075831
 20
-7.502516754113
 11
387.74965075831
 21
-7.29196455565
 12
387.814766508093
 22
-7.41561096827
 13
387.814766508093
 23
-7.41561096827
  0
SOLID
  8
図面枠
  6
CONTINUOUS
 62
     7
 10
387.814766508093
 20
-7.41561096827
 11
387.74965075831
 21
-7.29196455565
 12
387.814766508093
 22
-7.209425255632
 13
387.814766508093
 23
-7.209425255632
  0
SOLID
  8
図面枠
  6
CONTINUOUS
 62
     7
 10
387.814766508093
 20
-7.41561096827
 11
387.814766508093
 21
-7.209425255632
 12
387.858129924976
 22
-7.35773661631
 13
387.858129924976
 23
-7.35773661631
  0
SOLID
  8
図面枠
  6
CONTINUOUS
 62
     7
 10
387.858129924976
 20
-7.35773661631
 11
387.814766508093
 21
-7.209425255632
 12
387.858129924976
 22
-7.154769851881
 13
387.858129924976
 23
-7.154769851881
  0
SOLID
  8
図面枠
  6
CONTINUOUS
 62
     7
 10
387.858129924976
 20
-7.35773661631
 11
387.858129924976
 21
-7.154769851881
 12
387.926776897633
 22
-7.261559347328
 13
387.926776897633
 23
-7.261559347328
  0
SOLID
  8
図面枠
  6
CONTINUOUS
 62
     7
 10
387.926776897633
 20
-7.261559347328
 11
387.858129924976
 21
-7.154769851881
 12
387.926776897633
 22
-7.068246965159
 13
387.926776897633
 23
-7.068246965159
  0
SOLID
  8
図面枠
  6
CONTINUOUS
 62
     7
 10
387.926776897633
 20
-7.261559347328
 11
387.926776897633
 21
-7.068246965159
 12
387.966609091643
 22
-7.205752783844
 13
387.966609091643
 23
-7.205752783844
  0
SOLID
  8
図面枠
  6
CONTINUOUS
 62
     7
 10
387.966609091643
 20
-7.205752783844
 11
387.926776897633
 21
-7.068246965159
 12
387.966609091643
 22
-7.013788887411
 13
387.966609091643
 23
-7.013788887411
  0
SOLID
  8
図面枠
  6
CONTINUOUS
 62
     7
 10
387.966609091643
 20
-7.205752783844
 11
387.966609091643
 21
-7.013788887411
 12
388.035256064299
 22
-7.10384626042
 13
388.035256064299
 23
-7.10384626042
  0
SOLID
  8
図面枠
  6
CONTINUOUS
 62
     7
 10
388.035256064299
 20
-7.10384626042
 11
387.966609091643
 21
-7.013788887411
 12
388.035256064299
 22
-6.919935604482
 13
388.035256064299
 23
-6.919935604482
  0
SOLID
  8
図面枠
  6
CONTINUOUS
 62
     7
 10
388.035256064299
 20
-7.10384626042
 11
388.035256064299
 21
-6.919935604482
 12
388.071415786521
 22
-7.050167104048
 13
388.071415786521
 23
-7.050167104048
  0
SOLID
  8
図面枠
  6
CONTINUOUS
 62
     7
 10
388.071415786521
 20
-7.050167104048
 11
388.035256064299
 21
-6.919935604482
 12
388.071415786521
 22
-6.868610658708
 13
388.071415786521
 23
-6.868610658708
  0
SOLID
  8
図面枠
  6
CONTINUOUS
 62
     7
 10
388.071415786521
 20
-7.050167104048
 11
388.071415786521
 21
-6.868610658708
 12
388.147407702754
 22
-6.934745419959
 13
388.147407702754
 23
-6.934745419959
  0
SOLID
  8
図面枠
  6
CONTINUOUS
 62
     7
 10
388.147407702754
 20
-6.934745419959
 11
388.071415786521
 21
-6.868610658708
 12
388.147407702754
 22
-6.760748077356
 13
388.147407702754
 23
-6.760748077356
  0
SOLID
  8
図面枠
  6
CONTINUOUS
 62
     7
 10
388.147407702754
 20
-6.934745419959
 11
388.147407702754
 21
-6.760748077356
 12
388.1762224814
 22
-6.890979576922
 13
388.1762224814
 23
-6.890979576922
  0
SOLID
  8
図面枠
  6
CONTINUOUS
 62
     7
 10
388.1762224814
 20
-6.890979576922
 11
388.147407702754
 21
-6.760748077356
 12
388.1762224814
 22
-6.717431988987
 13
388.1762224814
 23
-6.717431988987
  0
SOLID
  8
図面枠
  6
CONTINUOUS
 62
     7
 10
388.1762224814
 20
-6.890979576922
 11
388.1762224814
 21
-6.717431988987
 12
388.255745620506
 22
-6.758287566228
 13
388.255745620506
 23
-6.758287566228
  0
SOLID
  8
図面枠
  6
CONTINUOUS
 62
     7
 10
388.255745620506
 20
-6.758287566228
 11
388.1762224814
 21
-6.717431988987
 12
388.255745620506
 22
-6.597888078441
 13
388.255745620506
 23
-6.597888078441
  0
SOLID
  8
図面枠
  6
CONTINUOUS
 62
     7
 10
388.255745620506
 20
-6.758287566228
 11
388.255745620506
 21
-6.597888078441
 12
388.273825481617
 22
-6.728119578007
 13
388.273825481617
 23
-6.728119578007
  0
SOLID
  8
図面枠
  6
CONTINUOUS
 62
     7
 10
388.273825481617
 20
-6.728119578007
 11
388.255745620506
 21
-6.597888078441
 12
388.273825481617
 22
-6.570472268897
 13
388.273825481617
 23
-6.570472268897
  0
SOLID
  8
図面枠
  6
CONTINUOUS
 62
     7
 10
388.273825481617
 20
-6.728119578007
 11
388.273825481617
 21
-6.570472268897
 12
388.367897258961
 22
-6.56774829912
 13
388.367897258961
 23
-6.56774829912
  0
SOLID
  8
図面枠
  6
CONTINUOUS
 62
     7
 10
388.367897258961
 20
-6.56774829912
 11
388.273825481617
 21
-6.570472268897
 12
388.367897258961
 22
-6.427824384864
 13
388.367897258961
 23
-6.427824384864
  0
SOLID
  8
図面枠
  6
CONTINUOUS
 62
     7
 10
388.367897258961
 20
-6.56774829912
 11
388.367897258961
 21
-6.427824384864
 12
388.371428481834
 22
-6.561728356218
 13
388.371428481834
 23
-6.561728356218
  0
SOLID
  8
図面枠
  6
CONTINUOUS
 62
     7
 10
388.371428481834
 20
-6.561728356218
 11
388.367897258961
 21
-6.427824384864
 12
388.371428481834
 22
-6.422210958159
 13
388.371428481834
 23
-6.422210958159
  0
SOLID
  8
図面枠
  6
CONTINUOUS
 62
     7
 10
388.371428481834
 20
-6.561728356218
 11
388.371428481834
 21
-6.422210958159
 12
388.429340536956
 22
-6.454773659823
 13
388.429340536956
 23
-6.454773659823
  0
SOLID
  8
図面枠
  6
CONTINUOUS
 62
     7
 10
388.429340536956
 20
-6.454773659823
 11
388.371428481834
 21
-6.422210958159
 12
388.429340536956
 22
-6.33015076019
 13
388.429340536956
 23
-6.33015076019
  0
SOLID
  8
図面枠
  6
CONTINUOUS
 62
     7
 10
388.429340536956
 20
-6.454773659823
 11
388.429340536956
 21
-6.33015076019
 12
388.465500259178
 22
-6.387992190854
 13
388.465500259178
 23
-6.387992190854
  0
ENDBLK
  8
0
  0
BLOCK
  8
0
  2
*U38
 70
     1
 10
0.0
 20
0.0
  0
SOLID
  8
図面枠
  6
CONTINUOUS
 62
     7
 10
386.723053644594
 20
-8.066947418176
 11
386.708646255272
 21
-7.878803863488
 12
386.723053644594
 22
-7.867266696257
 13
386.723053644594
 23
-7.867266696257
  0
SOLID
  8
図面枠
  6
CONTINUOUS
 62
     7
 10
386.723053644594
 20
-8.066947418176
 11
386.723053644594
 21
-7.867266696257
 12
386.744805977494
 22
-8.114836538575
 13
386.744805977494
 23
-8.114836538575
  0
SOLID
  8
図面枠
  6
CONTINUOUS
 62
     7
 10
386.744805977494
 20
-8.114836538575
 11
386.723053644594
 21
-7.867266696257
 12
386.744805977494
 22
-7.849847835928
 13
386.744805977494
 23
-7.849847835928
  0
SOLID
  8
図面枠
  6
CONTINUOUS
 62
     7
 10
386.744805977494
 20
-8.114836538575
 11
386.744805977494
 21
-7.849847835928
 12
386.81345295015
 22
-8.265967139313
 13
386.81345295015
 23
-8.265967139313
  0
SOLID
  8
図面枠
  6
CONTINUOUS
 62
     7
 10
386.81345295015
 20
-8.265967139313
 11
386.744805977494
 21
-7.849847835928
 12
386.81345295015
 22
-8.020297802047
 13
386.81345295015
 23
-8.020297802047
  0
SOLID
  8
図面枠
  6
CONTINUOUS
 62
     7
 10
386.81345295015
 20
-8.265967139313
 11
386.81345295015
 21
-8.020297802047
 12
386.827860339473
 22
-8.286404983124
 13
386.827860339473
 23
-8.286404983124
  0
SOLID
  8
図面枠
  6
CONTINUOUS
 62
     7
 10
386.827860339473
 20
-8.286404983124
 11
386.81345295015
 21
-8.020297802047
 12
386.827860339473
 22
-8.056071251726
 13
386.827860339473
 23
-8.056071251726
  0
SOLID
  8
図面枠
  6
CONTINUOUS
 62
     7
 10
386.827860339473
 20
-8.286404983124
 11
386.827860339473
 21
-8.056071251726
 12
386.856816367034
 22
-8.327481041765
 13
386.856816367034
 23
-8.327481041765
  0
SOLID
  8
図面枠
  6
CONTINUOUS
 62
     7
 10
386.856816367034
 20
-8.327481041765
 11
386.827860339473
 21
-8.056071251726
 12
386.856816367034
 22
-8.074020759517
 13
386.856816367034
 23
-8.074020759517
  0
SOLID
  8
図面枠
  6
CONTINUOUS
 62
     7
 10
386.856816367034
 20
-8.327481041765
 11
386.856816367034
 21
-8.074020759517
 12
386.903852255705
 22
-8.37622255541
 13
386.903852255705
 23
-8.37622255541
  0
SOLID
  8
図面枠
  6
CONTINUOUS
 62
     7
 10
386.903852255705
 20
-8.37622255541
 11
386.856816367034
 21
-8.074020759517
 12
386.903852255705
 22
-8.103177764856
 13
386.903852255705
 23
-8.103177764856
  0
SOLID
  8
図面枠
  6
CONTINUOUS
 62
     7
 10
386.903852255705
 20
-8.37622255541
 11
386.903852255705
 21
-8.103177764856
 12
386.958091839039
 22
-8.432428985559
 13
386.958091839039
 23
-8.432428985559
  0
SOLID
  8
図面枠
  6
CONTINUOUS
 62
     7
 10
386.958091839039
 20
-8.432428985559
 11
386.903852255705
 21
-8.103177764856
 12
386.958091839039
 22
-8.116939156114
 13
386.958091839039
 23
-8.116939156114
  0
SOLID
  8
図面枠
  6
CONTINUOUS
 62
     7
 10
386.958091839039
 20
-8.432428985559
 11
386.958091839039
 21
-8.116939156114
 12
386.994251561261
 22
-8.399871110667
 13
386.994251561261
 23
-8.399871110667
  0
SOLID
  8
図面枠
  6
CONTINUOUS
 62
     7
 10
386.994251561261
 20
-8.399871110667
 11
386.958091839039
 21
-8.116939156114
 12
386.994251561261
 22
-8.126113416953
 13
386.994251561261
 23
-8.126113416953
  0
SOLID
  8
図面枠
  6
CONTINUOUS
 62
     7
 10
386.994251561261
 20
-8.399871110667
 11
386.994251561261
 21
-8.126113416953
 12
387.012331422372
 22
-8.313003027985
 13
387.012331422372
 23
-8.313003027985
  0
SOLID
  8
図面枠
  6
CONTINUOUS
 62
     7
 10
387.012331422372
 20
-8.313003027985
 11
386.994251561261
 21
-8.126113416953
 12
387.012331422372
 22
-8.130700547373
 13
387.012331422372
 23
-8.130700547373
  0
SOLID
  8
図面枠
  6
CONTINUOUS
 62
     7
 10
387.012331422372
 20
-8.313003027985
 11
387.012331422372
 21
-8.130700547373
 12
387.033942506357
 22
-8.287648847755
 13
387.033942506357
 23
-8.287648847755
  0
SOLID
  8
図面枠
  6
CONTINUOUS
 62
     7
 10
387.033942506357
 20
-8.287648847755
 11
387.012331422372
 21
-8.130700547373
 12
387.033942506357
 22
-8.136183601702
 13
387.033942506357
 23
-8.136183601702
  0
SOLID
  8
図面枠
  6
CONTINUOUS
 62
     7
 10
387.033942506357
 20
-8.287648847755
 11
387.033942506357
 21
-8.136183601702
 12
387.160501534134
 22
-8.168293514639
 13
387.160501534134
 23
-8.168293514639
  0
ENDBLK
  8
0
  0
BLOCK
  8
0
  2
*U39
 70
     1
 10
0.0
 20
0.0
  0
SOLID
  8
図面枠
  6
CONTINUOUS
 62
     7
 10
386.744805977494
 20
-6.03858853767
 11
386.726726116383
 21
-6.01530692881
 12
386.744805977494
 22
-5.971872887468
 13
386.744805977494
 23
-5.971872887468
  0
SOLID
  8
図面枠
  6
CONTINUOUS
 62
     7
 10
386.744805977494
 20
-6.03858853767
 11
386.744805977494
 21
-5.971872887468
 12
386.777293227928
 22
-6.080422678593
 13
386.777293227928
 23
-6.080422678593
  0
SOLID
  8
図面枠
  6
CONTINUOUS
 62
     7
 10
386.777293227928
 20
-6.080422678593
 11
386.744805977494
 21
-5.971872887468
 12
386.777293227928
 22
-5.992785610538
 13
386.777293227928
 23
-5.992785610538
  0
SOLID
  8
図面枠
  6
CONTINUOUS
 62
     7
 10
386.777293227928
 20
-6.080422678593
 11
386.777293227928
 21
-5.992785610538
 12
386.878568699933
 22
-6.225202816396
 13
386.878568699933
 23
-6.225202816396
  0
SOLID
  8
図面枠
  6
CONTINUOUS
 62
     7
 10
386.878568699933
 20
-6.225202816396
 11
386.777293227928
 21
-5.992785610538
 12
386.878568699933
 22
-6.057978751587
 13
386.878568699933
 23
-6.057978751587
  0
SOLID
  8
図面枠
  6
CONTINUOUS
 62
     7
 10
386.878568699933
 20
-6.225202816396
 11
386.878568699933
 21
-6.057978751587
 12
386.896648561044
 22
-6.261428846178
 13
386.896648561044
 23
-6.261428846178
  0
SOLID
  8
図面枠
  6
CONTINUOUS
 62
     7
 10
386.896648561044
 20
-6.261428846178
 11
386.878568699933
 21
-6.057978751587
 12
386.896648561044
 22
-6.0696171366
 13
386.896648561044
 23
-6.0696171366
  0
SOLID
  8
図面枠
  6
CONTINUOUS
 62
     7
 10
386.896648561044
 20
-6.261428846178
 11
386.896648561044
 21
-6.0696171366
 12
386.93633950614
 22
-6.340956302182
 13
386.93633950614
 23
-6.340956302182
  0
SOLID
  8
図面枠
  6
CONTINUOUS
 62
     7
 10
386.93633950614
 20
-6.340956302182
 11
386.896648561044
 21
-6.0696171366
 12
386.93633950614
 22
-6.108096514385
 13
386.93633950614
 23
-6.108096514385
  0
SOLID
  8
図面枠
  6
CONTINUOUS
 62
     7
 10
386.93633950614
 20
-6.340956302182
 11
386.93633950614
 21
-6.108096514385
 12
386.994251561261
 22
-6.521896162208
 13
386.994251561261
 23
-6.521896162208
  0
SOLID
  8
図面枠
  6
CONTINUOUS
 62
     7
 10
386.994251561261
 20
-6.521896162208
 11
386.93633950614
 21
-6.108096514385
 12
386.994251561261
 22
-6.164240802256
 13
386.994251561261
 23
-6.164240802256
  0
SOLID
  8
図面枠
  6
CONTINUOUS
 62
     7
 10
386.994251561261
 20
-6.521896162208
 11
386.994251561261
 21
-6.164240802256
 12
387.001455255923
 22
-6.56893205088
 13
387.001455255923
 23
-6.56893205088
  0
SOLID
  8
図面枠
  6
CONTINUOUS
 62
     7
 10
387.001455255923
 20
-6.56893205088
 11
386.994251561261
 21
-6.164240802256
 12
387.001455255923
 22
-6.171224603918
 13
387.001455255923
 23
-6.171224603918
  0
SOLID
  8
図面枠
  6
CONTINUOUS
 62
     7
 10
387.001455255923
 20
-6.56893205088
 11
387.001455255923
 21
-6.171224603918
 12
387.012331422372
 22
-6.591247310363
 13
387.012331422372
 23
-6.591247310363
  0
SOLID
  8
図面枠
  6
CONTINUOUS
 62
     7
 10
387.012331422372
 20
-6.591247310363
 11
387.001455255923
 21
-6.171224603918
 12
387.012331422372
 22
-6.181768775055
 13
387.012331422372
 23
-6.181768775055
  0
SOLID
  8
図面枠
  6
CONTINUOUS
 62
     7
 10
387.012331422372
 20
-6.591247310363
 11
387.012331422372
 21
-6.181768775055
 12
387.073774700367
 22
-6.717314036014
 13
387.073774700367
 23
-6.717314036014
  0
SOLID
  8
図面枠
  6
CONTINUOUS
 62
     7
 10
387.073774700367
 20
-6.717314036014
 11
387.012331422372
 21
-6.181768775055
 12
387.073774700367
 22
-6.268636857737
 13
387.073774700367
 23
-6.268636857737
  0
SOLID
  8
図面枠
  6
CONTINUOUS
 62
     7
 10
387.073774700367
 20
-6.717314036014
 11
387.073774700367
 21
-6.268636857737
 12
387.095385784351
 22
-6.713641564226
 13
387.095385784351
 23
-6.713641564226
  0
SOLID
  8
図面枠
  6
CONTINUOUS
 62
     7
 10
387.095385784351
 20
-6.713641564226
 11
387.073774700367
 21
-6.268636857737
 12
387.095385784351
 22
-6.325658643277
 13
387.095385784351
 23
-6.325658643277
  0
SOLID
  8
図面枠
  6
CONTINUOUS
 62
     7
 10
387.095385784351
 20
-6.713641564226
 11
387.095385784351
 21
-6.325658643277
 12
387.153297839473
 22
-6.591561522103
 13
387.153297839473
 23
-6.591561522103
  0
SOLID
  8
図面枠
  6
CONTINUOUS
 62
     7
 10
387.153297839473
 20
-6.591561522103
 11
387.095385784351
 21
-6.325658643277
 12
387.153297839473
 22
-6.478462120867
 13
387.153297839473
 23
-6.478462120867
  0
SOLID
  8
図面枠
  6
CONTINUOUS
 62
     7
 10
387.153297839473
 20
-6.591561522103
 11
387.153297839473
 21
-6.478462120867
 12
387.164032757008
 22
-6.56893205088
 13
387.164032757008
 23
-6.56893205088
  0
ENDBLK
  8
0
  0
BLOCK
  8
0
  2
*X40
 70
     1
 10
0.0
 20
0.0
  0
SOLID
  8
SUNPOUSEN
 62
     7
 10
71.132702935839
 20
97.716125543059
 11
72.045327519519
 21
100.080597467269
 12
71.94888975362
 22
97.547948484796
 13
71.94888975362
 23
97.547948484796
  0
LINE
  8
SUNPOUSEN
 62
     7
 10
71.540796344729
 20
97.632037013928
 11
70.647941890385
 21
93.29888929831
  0
LINE
  8
SUNPOUSEN
 62
     7
 10
70.647941890385
 20
93.29888929831
 11
41.024533928818
 21
93.29888929831
  0
ENDBLK
  8
0
  0
BLOCK
  8
0
  2
*X41
 70
     1
 10
0.0
 20
0.0
  0
SOLID
  8
SUNPOUSEN
 62
     7
 10
118.661768121745
 20
96.833555367668
 11
117.443718431428
 21
99.056158810262
 12
119.316771957704
 22
97.348739237101
 13
119.316771957704
 23
97.348739237101
  0
LINE
  8
SUNPOUSEN
 62
     7
 10
118.989270039725
 20
97.091147302385
 11
122.970810985706
 21
92.029023374631
  0
ENDBLK
  8
0
  0
BLOCK
  8
0
  2
*U42
 70
     1
 10
0.0
 20
0.0
  0
SOLID
  8
HATCH
  6
CONTINUOUS
 62
     7
 10
103.076325490027
 20
196.732803324667
 11
102.878710335469
 21
197.359909406729
 12
103.076325490027
 22
197.778547050879
 13
103.076325490027
 23
197.778547050879
  0
SOLID
  8
HATCH
  6
CONTINUOUS
 62
     7
 10
103.076325490027
 20
196.732803324667
 11
103.076325490027
 21
197.778547050879
 12
103.159382507327
 22
196.659249966253
 13
103.159382507327
 23
196.659249966253
  0
SOLID
  8
HATCH
  6
CONTINUOUS
 62
     7
 10
103.159382507327
 20
196.659249966253
 11
103.076325490027
 21
197.778547050879
 12
103.159382507327
 22
197.954499113514
 13
103.159382507327
 23
197.954499113514
  0
SOLID
  8
HATCH
  6
CONTINUOUS
 62
     7
 10
103.159382507327
 20
196.659249966253
 11
103.159382507327
 21
197.954499113514
 12
103.725538949354
 22
196.157875018626
 13
103.725538949354
 23
196.157875018626
  0
SOLID
  8
HATCH
  6
CONTINUOUS
 62
     7
 10
103.725538949354
 20
196.157875018626
 11
103.159382507327
 21
197.954499113514
 12
103.725538949354
 22
198.332775773818
 13
103.725538949354
 23
198.332775773818
  0
SOLID
  8
HATCH
  6
CONTINUOUS
 62
     7
 10
103.725538949354
 20
196.157875018626
 11
103.725538949354
 21
198.332775773818
 12
103.880435673533
 22
196.089823622554
 13
103.880435673533
 23
196.089823622554
  0
SOLID
  8
HATCH
  6
CONTINUOUS
 62
     7
 10
103.880435673533
 20
196.089823622554
 11
103.725538949354
 21
198.332775773818
 12
103.880435673533
 22
198.436269810386
 13
103.880435673533
 23
198.436269810386
  0
SOLID
  8
HATCH
  6
CONTINUOUS
 62
     7
 10
103.880435673533
 20
196.089823622554
 11
103.880435673533
 21
198.436269810386
 12
104.738670838354
 22
195.712771742123
 13
104.738670838354
 23
195.712771742123
  0
SOLID
  8
HATCH
  6
CONTINUOUS
 62
     7
 10
104.738670838354
 20
195.712771742123
 11
103.880435673533
 21
198.436269810386
 12
104.738670838354
 22
198.681375846873
 13
104.738670838354
 23
198.681375846873
  0
SOLID
  8
HATCH
  6
CONTINUOUS
 62
     7
 10
104.738670838354
 20
195.712771742123
 11
104.738670838354
 21
198.681375846873
 12
104.944487608498
 22
195.670426756795
 13
104.944487608498
 23
195.670426756795
  0
SOLID
  8
HATCH
  6
CONTINUOUS
 62
     7
 10
104.944487608498
 20
195.670426756795
 11
104.738670838354
 21
198.681375846873
 12
104.944487608498
 22
198.740155695148
 13
104.944487608498
 23
198.740155695148
  0
SOLID
  8
HATCH
  6
CONTINUOUS
 62
     7
 10
104.944487608498
 20
195.670426756795
 11
104.944487608498
 21
198.740155695148
 12
105.978892081457
 22
195.457607159053
 13
105.978892081457
 23
195.457607159053
  0
SOLID
  8
HATCH
  6
CONTINUOUS
 62
     7
 10
105.978892081457
 20
195.457607159053
 11
104.944487608498
 21
198.740155695148
 12
105.978892081457
 22
198.809719130745
 13
105.978892081457
 23
198.809719130745
  0
SOLID
  8
HATCH
  6
CONTINUOUS
 62
     7
 10
105.978892081457
 20
195.457607159053
 11
105.978892081457
 21
198.809719130745
 12
106.207832202289
 22
195.452188507047
 13
106.207832202289
 23
195.452188507047
  0
SOLID
  8
HATCH
  6
CONTINUOUS
 62
     7
 10
106.207832202289
 20
195.452188507047
 11
105.978892081457
 21
198.809719130745
 12
106.207832202289
 22
198.825115295173
 13
106.207832202289
 23
198.825115295173
  0
SOLID
  8
HATCH
  6
CONTINUOUS
 62
     7
 10
106.207832202289
 20
195.452188507047
 11
106.207832202289
 21
198.825115295173
 12
107.278703927481
 22
195.426842660276
 13
107.278703927481
 23
195.426842660276
  0
SOLID
  8
HATCH
  6
CONTINUOUS
 62
     7
 10
107.278703927481
 20
195.426842660276
 11
106.207832202289
 21
198.825115295173
 12
107.278703927481
 22
198.70456829503
 13
107.278703927481
 23
198.70456829503
  0
SOLID
  8
HATCH
  6
CONTINUOUS
 62
     7
 10
107.278703927481
 20
195.426842660276
 11
107.278703927481
 21
198.70456829503
 12
107.499847767082
 22
195.463789859627
 13
107.499847767082
 23
195.463789859627
  0
SOLID
  8
HATCH
  6
CONTINUOUS
 62
     7
 10
107.499847767082
 20
195.463789859627
 11
107.278703927481
 21
198.70456829503
 12
107.499847767082
 22
198.679674345701
 13
107.499847767082
 23
198.679674345701
  0
SOLID
  8
HATCH
  6
CONTINUOUS
 62
     7
 10
107.499847767082
 20
195.463789859627
 11
107.499847767082
 21
198.679674345701
 12
108.462559584113
 22
195.624633161823
 13
108.462559584113
 23
195.624633161823
  0
SOLID
  8
HATCH
  6
CONTINUOUS
 62
     7
 10
108.462559584113
 20
195.624633161823
 11
107.499847767082
 21
198.679674345701
 12
108.462559584113
 22
198.380495253932
 13
108.462559584113
 23
198.380495253932
  0
SOLID
  8
HATCH
  6
CONTINUOUS
 62
     7
 10
108.462559584113
 20
195.624633161823
 11
108.462559584113
 21
198.380495253932
 12
108.646040441544
 22
195.705386358455
 13
108.646040441544
 23
195.705386358455
  0
SOLID
  8
HATCH
  6
CONTINUOUS
 62
     7
 10
108.646040441544
 20
195.705386358455
 11
108.462559584113
 21
198.380495253932
 12
108.646040441544
 22
198.323475452874
 13
108.646040441544
 23
198.323475452874
  0
SOLID
  8
HATCH
  6
CONTINUOUS
 62
     7
 10
108.646040441544
 20
195.705386358455
 11
108.646040441544
 21
198.323475452874
 12
109.370572784956
 22
196.024265960465
 13
109.370572784956
 23
196.024265960465
  0
SOLID
  8
HATCH
  6
CONTINUOUS
 62
     7
 10
109.370572784956
 20
196.024265960465
 11
108.646040441544
 21
198.323475452874
 12
109.370572784956
 22
197.878895225547
 13
109.370572784956
 23
197.878895225547
  0
SOLID
  8
HATCH
  6
CONTINUOUS
 62
     7
 10
109.370572784956
 20
196.024265960465
 11
109.370572784956
 21
197.878895225547
 12
109.491610553718
 22
196.154321831762
 13
109.491610553718
 23
196.154321831762
  0
SOLID
  8
HATCH
  6
CONTINUOUS
 62
     7
 10
109.491610553718
 20
196.154321831762
 11
109.370572784956
 21
197.878895225547
 12
109.491610553718
 22
197.804625250934
 13
109.491610553718
 23
197.804625250934
  0
SOLID
  8
HATCH
  6
CONTINUOUS
 62
     7
 10
109.491610553718
 20
196.154321831762
 11
109.491610553718
 21
197.804625250934
 12
109.880111315759
 22
196.571768432304
 13
109.880111315759
 23
196.571768432304
  0
SOLID
  8
HATCH
  6
CONTINUOUS
 62
     7
 10
109.880111315759
 20
196.571768432304
 11
109.491610553718
 21
197.804625250934
 12
109.880111315759
 22
197.253166232993
 13
109.880111315759
 23
197.253166232993
  0
SOLID
  8
HATCH
  6
CONTINUOUS
 62
     7
 10
109.880111315759
 20
196.571768432304
 11
109.880111315759
 21
197.253166232993
 12
109.922359174488
 22
197.193197334702
 13
109.922359174488
 23
197.193197334702
  0
ENDBLK
  8
0
  0
BLOCK
  8
0
  2
*U43
 70
     1
 10
0.0
 20
0.0
  0
SOLID
  8
HATCH
  6
CONTINUOUS
 62
     7
 10
157.650381651577
 20
157.033127653516
 11
157.500858381464
 21
157.731709486916
 12
157.650381651577
 22
158.88241443166
 13
157.650381651577
 23
158.88241443166
  0
SOLID
  8
HATCH
  6
CONTINUOUS
 62
     7
 10
157.650381651577
 20
157.033127653516
 11
157.650381651577
 21
158.88241443166
 12
157.719332717264
 22
156.954063326947
 13
157.719332717264
 23
156.954063326947
  0
SOLID
  8
HATCH
  6
CONTINUOUS
 62
     7
 10
157.719332717264
 20
156.954063326947
 11
157.650381651577
 21
158.88241443166
 12
157.719332717264
 22
159.413049778063
 13
157.719332717264
 23
159.413049778063
  0
SOLID
  8
HATCH
  6
CONTINUOUS
 62
     7
 10
157.719332717264
 20
156.954063326947
 11
157.719332717264
 21
159.413049778063
 12
157.747053701196
 22
156.922276422647
 13
157.747053701196
 23
156.922276422647
  0
SOLID
  8
HATCH
  6
CONTINUOUS
 62
     7
 10
157.747053701196
 20
156.922276422647
 11
157.719332717264
 21
159.413049778063
 12
157.747053701196
 22
159.542405695729
 13
157.747053701196
 23
159.542405695729
  0
SOLID
  8
HATCH
  6
CONTINUOUS
 62
     7
 10
157.747053701196
 20
156.922276422647
 11
157.747053701196
 21
159.542405695729
 12
157.7877820441
 22
156.875574330781
 13
157.7877820441
 23
156.875574330781
  0
SOLID
  8
HATCH
  6
CONTINUOUS
 62
     7
 10
157.7877820441
 20
156.875574330781
 11
157.747053701196
 21
159.542405695729
 12
157.7877820441
 22
159.732458551874
 13
157.7877820441
 23
159.732458551874
  0
SOLID
  8
HATCH
  6
CONTINUOUS
 62
     7
 10
157.7877820441
 20
159.732458551874
 11
157.747053701196
 21
160.225576588713
 12
157.7877820441
 22
160.225576588713
 13
157.7877820441
 23
160.225576588713
  0
SOLID
  8
HATCH
  6
CONTINUOUS
 62
     7
 10
157.7877820441
 20
156.875574330781
 11
157.7877820441
 21
160.225576588713
 12
157.834317813829
 22
156.822213019272
 13
157.834317813829
 23
156.822213019272
  0
SOLID
  8
HATCH
  6
CONTINUOUS
 62
     7
 10
157.834317813829
 20
156.822213019272
 11
157.7877820441
 21
160.225576588713
 12
157.834317813829
 22
160.225576588713
 13
157.834317813829
 23
160.225576588713
  0
SOLID
  8
HATCH
  6
CONTINUOUS
 62
     7
 10
157.834317813829
 20
156.822213019272
 11
157.834317813829
 21
160.225576588713
 12
158.107983439048
 22
156.742731794059
 13
158.107983439048
 23
156.742731794059
  0
SOLID
  8
HATCH
  6
CONTINUOUS
 62
     7
 10
158.107983439048
 20
156.742731794059
 11
157.834317813829
 21
160.225576588713
 12
158.107983439048
 22
160.225576588713
 13
158.107983439048
 23
160.225576588713
  0
SOLID
  8
HATCH
  6
CONTINUOUS
 62
     7
 10
158.107983439048
 20
156.742731794059
 11
158.107983439048
 21
160.225576588713
 12
158.246611806382
 22
156.750179121145
 13
158.246611806382
 23
156.750179121145
  0
SOLID
  8
HATCH
  6
CONTINUOUS
 62
     7
 10
158.246611806382
 20
156.750179121145
 11
158.107983439048
 21
160.225576588713
 12
158.246611806382
 22
160.225576588713
 13
158.246611806382
 23
160.225576588713
  0
SOLID
  8
HATCH
  6
CONTINUOUS
 62
     7
 10
158.246611806382
 20
156.750179121145
 11
158.246611806382
 21
160.225576588713
 12
158.385240173715
 22
156.742731794059
 13
158.385240173715
 23
156.742731794059
  0
SOLID
  8
HATCH
  6
CONTINUOUS
 62
     7
 10
158.385240173715
 20
156.742731794059
 11
158.246611806382
 21
160.225576588713
 12
158.385240173715
 22
160.225576588713
 13
158.385240173715
 23
160.225576588713
  0
SOLID
  8
HATCH
  6
CONTINUOUS
 62
     7
 10
158.385240173715
 20
156.742731794059
 11
158.385240173715
 21
160.225576588713
 12
158.658905798934
 22
156.822213019272
 13
158.658905798934
 23
156.822213019272
  0
SOLID
  8
HATCH
  6
CONTINUOUS
 62
     7
 10
158.658905798934
 20
156.822213019272
 11
158.385240173715
 21
160.225576588713
 12
158.658905798934
 22
160.225576588713
 13
158.658905798934
 23
160.225576588713
  0
SOLID
  8
HATCH
  6
CONTINUOUS
 62
     7
 10
158.658905798934
 20
156.822213019272
 11
158.658905798934
 21
160.225576588713
 12
158.705441568664
 22
156.875574330781
 13
158.705441568664
 23
156.875574330781
  0
SOLID
  8
HATCH
  6
CONTINUOUS
 62
     7
 10
158.705441568664
 20
156.875574330781
 11
158.658905798934
 21
160.225576588713
 12
158.705441568664
 22
160.225576588713
 13
158.705441568664
 23
160.225576588713
  0
SOLID
  8
HATCH
  6
CONTINUOUS
 62
     7
 10
158.705441568664
 20
156.875574330781
 11
158.705441568664
 21
159.732458551874
 12
158.746169911568
 22
156.922276422647
 13
158.746169911568
 23
156.922276422647
  0
SOLID
  8
HATCH
  6
CONTINUOUS
 62
     7
 10
158.746169911568
 20
156.922276422647
 11
158.705441568664
 21
159.732458551874
 12
158.746169911568
 22
159.54240569573
 13
158.746169911568
 23
159.54240569573
  0
SOLID
  8
HATCH
  6
CONTINUOUS
 62
     7
 10
158.705441568664
 20
159.732458551874
 11
158.705441568664
 21
160.225576588713
 12
158.746169911568
 22
160.225576588713
 13
158.746169911568
 23
160.225576588713
  0
SOLID
  8
HATCH
  6
CONTINUOUS
 62
     7
 10
158.746169911568
 20
156.922276422647
 11
158.746169911568
 21
159.54240569573
 12
158.773890895499
 22
156.954063326947
 13
158.773890895499
 23
156.954063326947
  0
SOLID
  8
HATCH
  6
CONTINUOUS
 62
     7
 10
158.773890895499
 20
156.954063326947
 11
158.746169911568
 21
159.54240569573
 12
158.773890895499
 22
159.413049778063
 13
158.773890895499
 23
159.413049778063
  0
SOLID
  8
HATCH
  6
CONTINUOUS
 62
     7
 10
158.773890895499
 20
156.954063326947
 11
158.773890895499
 21
159.413049778063
 12
158.842841961187
 22
157.033127653516
 13
158.842841961187
 23
157.033127653516
  0
SOLID
  8
HATCH
  6
CONTINUOUS
 62
     7
 10
158.842841961187
 20
157.033127653516
 11
158.773890895499
 21
159.413049778063
 12
158.842841961187
 22
158.882414431662
 13
158.842841961187
 23
158.882414431662
  0
SOLID
  8
HATCH
  6
CONTINUOUS
 62
     7
 10
158.842841961187
 20
157.033127653516
 11
158.842841961187
 21
158.882414431662
 12
158.9923652313
 22
157.731709486916
 13
158.9923652313
 23
157.731709486916
  0
ENDBLK
  8
0
  0
BLOCK
  8
0
  2
*U44
 70
     1
 10
0.0
 20
0.0
  0
SOLID
  8
HATCH
  6
CONTINUOUS
 62
     7
 10
98.645597256493
 20
161.913853287356
 11
98.549715690073
 21
161.921409415219
 12
98.645597256493
 22
161.977495361198
 13
98.645597256493
 23
161.977495361198
  0
SOLID
  8
HATCH
  6
CONTINUOUS
 62
     7
 10
98.645597256493
 20
161.913853287356
 11
98.645597256493
 21
161.977495361198
 12
99.320851629838
 22
161.860638591609
 13
99.320851629838
 23
161.860638591609
  0
SOLID
  8
HATCH
  6
CONTINUOUS
 62
     7
 10
99.320851629838
 20
161.860638591609
 11
98.645597256493
 21
161.977495361198
 12
99.320851629838
 22
163.178377918168
 13
99.320851629838
 23
163.178377918168
  0
SOLID
  8
HATCH
  6
CONTINUOUS
 62
     7
 10
99.320851629838
 20
161.860638591609
 11
99.320851629838
 21
163.178377918168
 12
107.59203572978
 22
161.208812312916
 13
107.59203572978
 23
161.208812312916
  0
SOLID
  8
HATCH
  6
CONTINUOUS
 62
     7
 10
107.59203572978
 20
161.208812312916
 11
99.320851629838
 21
163.178377918168
 12
107.59203572978
 22
162.433744640058
 13
107.59203572978
 23
162.433744640058
  0
SOLID
  8
HATCH
  6
CONTINUOUS
 62
     7
 10
107.59203572978
 20
161.208812312916
 11
107.59203572978
 21
162.433744640058
 12
108.194725443101
 22
162.280644784591
 13
108.194725443101
 23
162.280644784591
  0
SOLID
  8
HATCH
  6
CONTINUOUS
 62
     7
 10
108.194725443101
 20
162.280644784591
 11
107.59203572978
 21
162.433744640058
 12
108.194725443101
 22
162.379486046429
 13
108.194725443101
 23
162.379486046429
  0
SOLID
  8
HATCH
  6
CONTINUOUS
 62
     7
 10
108.194725443101
 20
162.280644784591
 11
108.194725443101
 21
162.379486046429
 12
108.21121230903
 22
162.378001776598
 13
108.21121230903
 23
162.378001776598
  0
ENDBLK
  8
0
  0
BLOCK
  8
0
  2
*X45
 70
     1
 10
0.0
 20
0.0
  0
SOLID
  8
SUNPOUSEN
 62
     7
 10
108.161664988801
 20
166.869959581846
 11
106.099270210341
 21
165.396820454374
 12
107.572409337813
 22
167.459215232835
 13
107.572409337813
 23
167.459215232835
  0
LINE
  8
SUNPOUSEN
 62
     7
 10
107.867037163307
 20
167.16458740734
 11
114.206649461428
 21
173.504199705461
  0
LINE
  8
SUNPOUSEN
 62
     7
 10
114.206649461428
 20
173.504199705461
 11
85.905363941358
 21
173.504199705461
  0
ENDBLK
  8
0
  0
BLOCK
  8
0
  2
*X46
 70
     1
 10
0.0
 20
0.0
  0
TEXT
  8
MOJI
  6
CONTINUOUS
 62
     7
 10
292.483472859826
 20
80.451533145813
 40
3.5
  1
指の指紋を照合して、入退出が可能です。
  0
TEXT
  8
MOJI
  6
CONTINUOUS
 62
     7
 10
292.37056963402
 20
74.618199812479
 40
3.5
  1
パソコンによる管理システムも行えます。
  0
ENDBLK
  8
0
  0
BLOCK
  8
0
  2
*X47
 70
     1
 10
0.0
 20
0.0
  0
TEXT
  8
MOJI
  6
CONTINUOUS
 62
     7
 10
292.144763182407
 20
66.576993009646
 40
3.5
  1
目の虹彩と照合して、入退出の制限
  0
TEXT
  8
MOJI
  6
CONTINUOUS
 62
     7
 10
292.483472859826
 20
61.326993009646
 40
3.5
  1
ができます。カードレスで装置に
  0
TEXT
  8
MOJI
  6
CONTINUOUS
 62
     7
 10
292.483472859826
 20
56.076993009646
 40
3.5
  1
触れる必要がないので、衛生面に
  0
TEXT
  8
MOJI
  6
CONTINUOUS
 62
     7
 10
292.483472859826
 20
50.826993009646
 40
3.5
  1
優れています。食品工場の出入口に
  0
TEXT
  8
MOJI
  6
CONTINUOUS
 62
     7
 10
292.483472859826
 20
45.576993009646
 40
3.5
  1
適しています。
  0
ENDBLK
  8
0
  0
BLOCK
  8
0
  2
*X48
 70
     1
 10
0.0
 20
0.0
  0
TEXT
  8
0
  6
CONTINUOUS
 62
     7
 10
292.825197249978
 20
206.861289693247
 40
3.5
  1
タッチレス機能搭載により起動エリアに
  0
TEXT
  8
0
  6
CONTINUOUS
 62
     7
 10
292.938100475784
 20
201.027956359914
 40
3.5
  1
手を近づけると非接触でドアの開放が
  0
TEXT
  8
0
  6
CONTINUOUS
 62
     7
 10
292.938100475784
 20
195.194623026581
 40
3.5
  1
可能です。
  0
TEXT
  8
0
  6
CONTINUOUS
 62
     7
 10
292.938100475784
 20
189.361289693247
 40
3.5
  1
既設のタッチスイッチを当センサーに
  0
TEXT
  8
0
  6
CONTINUOUS
 62
     7
 10
292.938100475784
 20
183.527956359914
 40
3.5
  1
取替えるだけで、非接触化が可能です。
  0
ENDBLK
  8
0
  0
BLOCK
  8
0
  2
*X49
 70
     1
 10
0.0
 20
0.0
  0
SOLID
  8
SUNPOUSEN
 62
     7
 10
165.820822673068
 20
128.110339862519
 11
164.204006471709
 21
126.158541593708
 12
165.100411547974
 22
128.529210075457
 13
165.100411547974
 23
128.529210075457
  0
LINE
  8
SUNPOUSEN
 62
     7
 10
165.460617110521
 20
128.319774968988
 11
168.798354389234
 21
134.06031940007
  0
LINE
  8
SUNPOUSEN
 62
     7
 10
168.798354389234
 20
134.06031940007
 11
205.793675282325
 21
134.06031940007
  0
ENDBLK
  8
0
  0
BLOCK
  8
0
  2
*X50
 70
     1
 10
0.0
 20
0.0
  0
SOLID
  8
SUNPOUSEN
 62
    18
 10
168.670733953271
 20
139.340928599365
 11
205.748153308109
 21
139.340928599365
 12
168.670733953271
 22
134.666735050978
 13
205.748153308109
 23
134.666735050978
  0
TEXT
  8
SUNPOUSEN
  6
CONTINUOUS
 62
     7
 10
169.144927501658
 20
135.253831825171
 40
3.5
  1
タッチレススイッチ
  0
ENDBLK
  8
0
  0
BLOCK
  8
0
  2
*X51
 70
     1
 10
0.0
 20
0.0
  0
SOLID
  8
SUNPOUSEN
 62
     7
 10
159.040943459591
 20
128.033010078567
 11
157.430099541347
 21
126.076279902439
 12
158.319255623104
 22
128.449676745234
 13
158.319255623104
 23
128.449676745234
  0
LINE
  8
SUNPOUSEN
 62
     7
 10
158.680099541347
 20
128.241343411901
 11
166.649274247702
 21
142.0443588977
  0
LINE
  8
SUNPOUSEN
 62
     7
 10
166.649274247702
 20
142.0443588977
 11
199.22762187389
 21
142.0443588977
  0
ENDBLK
  8
0
  0
BLOCK
  8
0
  2
*X52
 70
     1
 10
0.0
 20
0.0
  0
SOLID
  8
SUNPOUSEN
 62
    18
 10
166.521653811739
 20
147.324968096995
 11
199.534557037545
 21
147.324968096995
 12
166.521653811739
 22
142.650774548608
 13
199.534557037545
 23
142.650774548608
  0
TEXT
  8
SUNPOUSEN
  6
CONTINUOUS
 62
     7
 10
166.995847360126
 20
143.237871322802
 40
3.5
  1
テンキースイッチ
  0
ENDBLK
  8
0
  0
BLOCK
  8
0
  2
*X53
 70
     1
 10
0.0
 20
0.0
  0
TEXT
  8
SUNPOUSEN
  6
CONTINUOUS
 62
     7
 10
123.63093156588
 20
139.194384089244
 40
3.5
  1
ソリック
  0
TEXT
  8
SUNPOUSEN
  6
CONTINUOUS
 62
     7
 10
123.856738017493
 20
134.819384089244
 40
3.5
  1
三角ドアステッカー
  0
ENDBLK
  8
0
  0
BLOCK
  8
0
  2
*X54
 70
     1
 10
0.0
 20
0.0
  0
SOLID
  8
SUNPOUSEN
 62
     7
 10
96.76414146876
 20
104.206915632944
 11
97.66565350855
 21
106.575646760199
 12
97.581108971642
 22
104.042572870161
 13
97.581108971642
 23
104.042572870161
  0
LINE
  8
SUNPOUSEN
 62
     7
 10
97.172625220201
 20
104.124744251552
 11
92.33390495451
 21
80.070887874367
  0
LINE
  8
SUNPOUSEN
 62
     7
 10
92.33390495451
 20
80.070887874367
 11
63.933029684012
 21
80.070887874367
  0
ENDBLK
  8
0
  0
ENDSEC
  0
SECTION
  2
ENTITIES
  0
LINE
  8
SAKUZU1
 62
     7
 10
151.426750203646
 20
70.802624787425
 11
170.326370568435
 21
72.736316895728
  0
POLYLINE
  8
SAKUZU1
 62
     7
 66
     1
 70
     1
  0
VERTEX
  8
SAKUZU1
 62
     7
 10
101.745458466622
 20
197.846804759054
  0
VERTEX
  8
SAKUZU1
 62
     7
 10
101.805676294851
 20
197.405241559973
  0
VERTEX
  8
SAKUZU1
 62
     7
 10
102.043224700073
 20
196.968434236816
  0
VERTEX
  8
SAKUZU1
 62
     7
 10
102.448974830296
 20
196.553169050049
  0
VERTEX
  8
SAKUZU1
 62
     7
 10
103.007333935562
 20
196.175404407915
  0
VERTEX
  8
SAKUZU1
 62
     7
 10
103.696844588586
 20
195.849657593759
  0
VERTEX
  8
SAKUZU1
 62
     7
 10
104.491009281656
 20
195.588446874969
  0
VERTEX
  8
SAKUZU1
 62
     7
 10
105.359308710989
 20
195.401810432978
  0
VERTEX
  8
SAKUZU1
 62
     7
 10
106.268374616464
 20
195.296920601585
  0
VERTEX
  8
SAKUZU1
 62
     7
 10
107.183272105143
 20
195.277808238188
  0
VERTEX
  8
SAKUZU1
 62
     7
 10
108.068842179618
 20
195.345207820194
  0
VERTEX
  8
SAKUZU1
 62
     7
 10
108.891052878558
 20
195.496529219464
  0
VERTEX
  8
SAKUZU1
 62
     7
 10
109.618307105906
 20
195.725957239487
  0
VERTEX
  8
SAKUZU1
 62
     7
 10
110.222656889553
 20
196.024675090118
  0
VERTEX
  8
SAKUZU1
 62
     7
 10
110.680877406236
 20
196.38120321188
  0
VERTEX
  8
SAKUZU1
 62
     7
 10
110.975359498474
 20
196.781840428996
  0
VERTEX
  8
SAKUZU1
 62
     7
 10
111.094786384607
 20
197.211190477894
  0
VERTEX
  8
SAKUZU1
 62
     7
 10
111.034568556379
 20
197.652753676975
  0
VERTEX
  8
SAKUZU1
 62
     7
 10
110.797020151156
 20
198.089561000132
  0
VERTEX
  8
SAKUZU1
 62
     7
 10
110.391270020933
 20
198.5048261869
  0
VERTEX
  8
SAKUZU1
 62
     7
 10
109.832910915667
 20
198.882590829033
  0
VERTEX
  8
SAKUZU1
 62
     7
 10
109.143400262643
 20
199.208337643189
  0
VERTEX
  8
SAKUZU1
 62
     7
 10
108.349235569573
 20
199.469548361979
  0
VERTEX
  8
SAKUZU1
 62
     7
 10
107.48093614024
 20
199.65618480397
  0
VERTEX
  8
SAKUZU1
 62
     7
 10
106.571870234765
 20
199.761074635363
  0
VERTEX
  8
SAKUZU1
 62
     7
 10
105.656972746086
 20
199.78018699876
  0
VERTEX
  8
SAKUZU1
 62
     7
 10
104.771402671612
 20
199.712787416754
  0
VERTEX
  8
SAKUZU1
 62
     7
 10
103.949191972671
 20
199.561466017484
  0
VERTEX
  8
SAKUZU1
 62
     7
 10
103.221937745323
 20
199.332037997461
  0
VERTEX
  8
SAKUZU1
 62
     7
 10
102.617587961676
 20
199.03332014683
  0
VERTEX
  8
SAKUZU1
 62
     7
 10
102.159367444993
 20
198.676792025069
  0
VERTEX
  8
SAKUZU1
 62
     7
 10
101.864885352756
 20
198.276154807952
  0
SEQEND
  8
SAKUZU1
 62
     7
  0
POLYLINE
  8
SAKUZU1
 62
     7
 66
     1
 70
     1
  0
VERTEX
  8
SAKUZU1
 62
     7
 10
102.878710335469
 20
197.359909406729
  0
VERTEX
  8
SAKUZU1
 62
     7
 10
102.924329902309
 20
197.025391831667
  0
VERTEX
  8
SAKUZU1
 62
     7
 10
103.104290815356
 20
196.694477192912
  0
VERTEX
  8
SAKUZU1
 62
     7
 10
103.411677277646
 20
196.379882354452
  0
VERTEX
  8
SAKUZU1
 62
     7
 10
103.834676599817
 20
196.093697019502
  0
VERTEX
  8
SAKUZU1
 62
     7
 10
104.357033155139
 20
195.846919129991
  0
VERTEX
  8
SAKUZU1
 62
     7
 10
104.958673074131
 20
195.649032221816
  0
VERTEX
  8
SAKUZU1
 62
     7
 10
105.61647567211
 20
195.507640977883
  0
VERTEX
  8
SAKUZU1
 62
     7
 10
106.305161964137
 20
195.428178984404
  0
VERTEX
  8
SAKUZU1
 62
     7
 10
106.998266122227
 20
195.413699921224
  0
VERTEX
  8
SAKUZU1
 62
     7
 10
107.669152542284
 20
195.464760210623
  0
VERTEX
  8
SAKUZU1
 62
     7
 10
108.29203943542
 20
195.579397634313
  0
VERTEX
  8
SAKUZU1
 62
     7
 10
108.842989607654
 20
195.753206740391
  0
VERTEX
  8
SAKUZU1
 62
     7
 10
109.300830352841
 20
195.979508142383
  0
VERTEX
  8
SAKUZU1
 62
     7
 10
109.647967107904
 20
196.249605204324
  0
VERTEX
  8
SAKUZU1
 62
     7
 10
109.871059602023
 20
196.553118247594
  0
VERTEX
  8
SAKUZU1
 62
     7
 10
109.961534515761
 20
196.878383436153
  0
VERTEX
  8
SAKUZU1
 62
     7
 10
109.915914948921
 20
197.212901011215
  0
VERTEX
  8
SAKUZU1
 62
     7
 10
109.735954035873
 20
197.54381564997
  0
VERTEX
  8
SAKUZU1
 62
     7
 10
109.428567573583
 20
197.85841048843
  0
VERTEX
  8
SAKUZU1
 62
     7
 10
109.005568251412
 20
198.14459582338
  0
VERTEX
  8
SAKUZU1
 62
     7
 10
108.48321169609
 20
198.391373712892
  0
VERTEX
  8
SAKUZU1
 62
     7
 10
107.881571777098
 20
198.589260621066
  0
VERTEX
  8
SAKUZU1
 62
     7
 10
107.223769179119
 20
198.730651864999
  0
VERTEX
  8
SAKUZU1
 62
     7
 10
106.535082887092
 20
198.810113858478
  0
VERTEX
  8
SAKUZU1
 62
     7
 10
105.841978729002
 20
198.824592921658
  0
VERTEX
  8
SAKUZU1
 62
     7
 10
105.171092308946
 20
198.773532632259
  0
VERTEX
  8
SAKUZU1
 62
     7
 10
104.548205415809
 20
198.65889520857
  0
VERTEX
  8
SAKUZU1
 62
     7
 10
103.997255243576
 20
198.485086102492
  0
VERTEX
  8
SAKUZU1
 62
     7
 10
103.539414498389
 20
198.258784700499
  0
VERTEX
  8
SAKUZU1
 62
     7
 10
103.192277743325
 20
197.988687638558
  0
VERTEX
  8
SAKUZU1
 62
     7
 10
102.969185249206
 20
197.685174595288
  0
SEQEND
  8
SAKUZU1
 62
     7
  0
LINE
  8
SAKUZU1
 62
     7
 10
76.076763245124
 20
161.835791149684
 11
76.076763245124
 21
92.122391910691
  0
LINE
  8
SAKUZU1
 62
     7
 10
77.73681633988
 20
63.946037224126
 11
128.218405594221
 21
69.180778975174
  0
LINE
  8
SAKUZU1
 62
     7
 10
77.73681633988
 20
161.693957399171
 11
77.73681633988
 21
92.122391910691
  0
LINE
  8
SAKUZU1
 62
     7
 10
51.32581633988
 20
198.157811580506
 11
51.32581633988
 21
105.255556604389
  0
LINE
  8
SAKUZU1
 62
     7
 10
49.56581633988
 20
198.52503075898
 11
49.56581633988
 21
105.255556604389
  0
LINE
  8
SAKUZU2
 62
     7
 10
49.315443824359
 20
198.348332321675
 11
49.315443824359
 21
105.255556604389
  0
LINE
  8
SAKUZU1
 62
     7
 10
77.698786286791
 20
64.375554438116
 11
128.218357603182
 21
69.613647227694
  0
LINE
  8
SAKUZU1
 62
     7
 10
36.915507765394
 20
59.374928771808
 11
49.315443824359
 21
60.486076998867
  0
LINE
  8
SAKUZU1
 62
     7
 10
49.56581633988
 20
60.355417406156
 11
51.32581633988
 21
60.524235187525
  0
LINE
  8
SAKUZU1
 62
     7
 10
104.017913695354
 20
52.44774762354
 11
132.357941607122
 21
57.583747332519
  0
LINE
  8
SAKUZU1
 62
     7
 10
87.248495351962
 20
62.804650802997
 11
104.017913695354
 21
52.44774762354
  0
LINE
  8
SAKUZU1
 62
     7
 10
118.076951169124
 20
66.403781053687
 11
132.357941607122
 21
57.583747332519
  0
LINE
  8
SAKUZU1
 62
     7
 10
51.32581633988
 20
163.559964190869
 11
150.044609345107
 21
156.683125005298
  0
LINE
  8
SAKUZU1
 62
     7
 10
51.32581633988
 20
173.61085091439
 11
150.044609345108
 21
163.358922199271
  0
LINE
  8
SAKUZU1
 62
     7
 10
77.73681633988
 20
158.453603160992
 11
101.532364085809
 21
157.140967962809
  0
LINE
  8
HASEN
 62
     7
 10
77.73681633988
 20
97.744241494715
 11
128.632417183226
 21
99.425833775009
  0
LINE
  8
SAKUZU1
 62
     7
 10
51.32581633988
 20
194.970626387127
 11
150.217712805798
 21
175.696840668942
  0
LINE
  8
SAKUZU1
 62
     7
 10
77.73681633988
 20
189.823187893231
 11
77.73681633988
 21
170.868073363608
  0
LINE
  8
SAKUZU1
 62
     7
 10
76.076763245124
 20
190.146728130324
 11
76.076763245124
 21
171.040469575845
  0
LINE
  8
SAKUZU1
 62
     7
 10
49.315443824359
 20
198.348332321675
 11
49.56581633988
 21
198.52503075898
  0
LINE
  8
SAKUZU1
 62
     7
 10
150.138776390334
 20
72.645661645406
 11
150.138776390334
 21
70.686371320598
  0
LINE
  8
SAKUZU1
 62
     7
 10
128.218357603182
 20
157.678130181512
 11
128.218357603182
 21
144.476974075937
  0
LINE
  8
SAKUZU1
 62
     7
 10
101.532248611544
 20
159.53710833995
 11
101.519671860187
 21
66.84540930252
  0
LINE
  8
SAKUZU1
 62
     7
 10
103.072364085809
 20
159.42982252211
 11
103.072364085809
 21
67.00639930579
  0
LINE
  8
SAKUZU1
 62
     7
 10
103.393408169728
 20
159.407458304828
 11
103.393408169727
 21
67.03968657758
  0
LINE
  8
SAKUZU1
 62
     7
 10
97.404212856323
 20
68.378611298899
 11
98.86852773734
 21
68.454601892534
  0
LINE
  8
SAKUZU1
 62
     7
 10
98.882953916631
 20
68.098587148395
 11
97.435297436736
 21
68.020174948042
  0
CIRCLE
  8
SAKUZU1
 62
     7
 10
98.158297879345
 20
68.257412211446
 40
0.9900000000000001
  0
LINE
  8
SAKUZU1
 62
     7
 10
97.435297436736
 20
68.020174948042
 11
97.404212856323
 21
68.378611298899
  0
LINE
  8
SAKUZU1
 62
     7
 10
107.208274950282
 20
69.096818909051
 11
108.673540278276
 21
69.151501261459
  0
LINE
  8
SAKUZU1
 62
     7
 10
108.682786273429
 20
68.795314338248
 11
107.234142358925
 21
68.737968319076
  0
CIRCLE
  8
SAKUZU1
 62
     7
 10
107.952200389334
 20
68.960767861779
 40
0.9900000000000001
  0
LINE
  8
SAKUZU1
 62
     7
 10
98.86852773734
 20
68.454601892534
 11
98.882953916631
 21
68.098587148395
  0
LINE
  8
SAKUZU1
 62
     7
 10
107.234142358925
 20
68.737968319076
 11
107.208274950282
 21
69.096818909051
  0
LINE
  8
SAKUZU1
 62
     7
 10
108.673540278276
 20
69.151501261459
 11
108.682786273429
 21
68.795314338248
  0
LINE
  8
SAKUZU2
 62
     7
 10
130.721311189671
 20
71.191998854242
 11
149.812485243831
 21
72.784709157621
  0
LINE
  8
SAKUZU1
 62
     7
 10
130.721376231538
 20
68.78986366997
 11
150.138776390334
 21
70.686371320598
  0
LINE
  8
SAKUZU1
 62
     7
 10
130.721316759971
 20
70.980492955349
 11
150.131805525176
 21
72.645051773729
  0
LINE
  8
SAKUZU1
 62
     7
 10
150.207791367743
 20
70.65618704557
 11
151.426747283825
 21
70.781091840181
  0
LINE
  8
SAKUZU1
 62
     7
 10
150.131805525176
 20
72.645051773729
 11
149.812485243832
 21
72.784709157621
  0
LINE
  8
SAKUZU1
 62
     7
 10
104.778392389186
 20
156.994394960018
 11
128.218357603182
 21
155.935973478244
  0
ARC
  8
SAKUZU1
 62
     7
 10
107.146963647347
 20
164.102482620308
 40
1.1
 50
0.0
 51
84.754584747529
  0
ARC
  8
SAKUZU1
 62
     7
 10
98.770851629838
 20
165.585128021064
 40
0.55
 50
0.0
 51
84.754584747529
  0
LINE
  8
SAKUZU1
 62
     7
 10
98.440102341399
 20
162.022194547212
 11
98.440102341399
 21
166.167527853957
  0
LINE
  8
SAKUZU1
 62
     7
 10
98.525266557436
 20
166.159987252522
 11
107.247527775975
 21
165.197876091182
  0
LINE
  8
SAKUZU1
 62
     7
 10
98.549715690073
 20
161.921409415219
 11
107.595012481544
 21
161.214106213127
  0
LINE
  8
SAKUZU1
 62
     7
 10
99.320851629838
 20
163.178377918168
 11
108.247625793345
 21
162.374723564934
  0
LINE
  8
SAKUZU1
 62
     7
 10
99.320851629838
 20
165.585128021064
 11
99.320851629838
 21
163.178377918168
  0
ARC
  8
SAKUZU1
 62
     7
 10
98.549715690073
 20
162.031409415219
 40
0.11
 50
180.0
 51
330.65102053489
  0
LINE
  8
SAKUZU1
 62
     7
 10
98.645597256493
 20
161.977495361198
 11
99.321905990031
 21
163.18025300823
  0
LINE
  8
SAKUZU1
 62
     7
 10
107.59203572978
 20
161.208812312916
 11
108.194725443101
 21
162.280644784591
  0
LINE
  8
SAKUZU1
 62
     7
 10
108.246963647347
 20
164.174571638377
 11
108.246963647348
 21
162.480126784465
  0
LINE
  8
SAKUZU1
 62
     7
 10
98.440102341399
 20
166.167805872409
 11
98.610430773473
 21
166.152168632634
  0
LINE
  8
SAKUZU1
 62
     7
 10
98.440102341399
 20
166.167805872409
 11
98.821133694152
 21
166.132824756501
  0
LINE
  8
SAKUZU1
 62
     7
 10
130.719255418107
 20
179.497041726417
 11
130.719255418107
 21
165.365856692925
  0
LINE
  8
SAKUZU1
 62
     7
 10
129.390837847559
 20
179.755947021128
 11
129.390837847558
 21
165.503812616235
  0
LINE
  8
SAKUZU2
 62
     7
 10
149.362823095826
 20
163.429725577369
 11
149.362823095826
 21
175.138577593563
  0
LINE
  8
SAKUZU2
 62
     7
 10
130.719255418107
 20
178.567447845067
 11
149.362823095826
 21
175.138577593563
  0
LINE
  8
SUNPOUSEN
 62
     7
 10
106.947052177041
 20
199.728315121262
 11
117.947052177041
 21
218.78087400452
  0
SOLID
  8
SUNPOUSEN
 62
     7
 10
107.851945486655
 20
202.365309156648
 11
108.658273643558
 21
201.929290027292
 12
106.947052177041
 22
199.728315121262
 13
106.947052177041
 23
199.728315121262
  0
LINE
  8
SUNPOUSEN
 62
     7
 10
117.947052177041
 20
218.78087400452
 11
156.137635144711
 21
218.78087400452
  0
LINE
  8
SAKUZU1
 62
     7
 10
170.326370568435
 20
72.736316895728
 11
208.400116297041
 21
58.762069753523
  0
LINE
  8
SAKUZU1
 62
     7
 10
176.108866864537
 20
111.594345709568
 11
182.665656993661
 21
111.196611441213
  0
LINE
  8
SAKUZU1
 62
     7
 10
182.665656993661
 20
115.173954124769
 11
176.108866864537
 21
114.776219856414
  0
LINE
  8
SAKUZU1
 62
     7
 10
176.108866864537
 20
114.776219856414
 11
176.108866864537
 21
111.594345709568
  0
LINE
  8
SAKUZU1
 62
     7
 10
182.665656993661
 20
111.196611441213
 11
182.665656993661
 21
115.173954124769
  0
LINE
  8
SAKUZU1
 62
     7
 10
170.326370568435
 20
173.21865484209
 11
208.400116297041
 21
184.509931736398
  0
TEXT
  8
SUNPOUSEN
 62
     7
 10
117.87259017253
 20
219.82577458826
 40
3.85
  1
 天井埋込型センサー
 41
0.88
  0
LINE
  8
SAKUZU2
 62
     7
 10
149.812485243831
 20
156.480649226526
 11
149.812485243831
 21
140.076974075937
  0
LINE
  8
SAKUZU2
 62
     7
 10
149.663470488613
 20
156.34618722441
 11
149.663470488613
 21
140.076974075937
  0
LINE
  8
SAKUZU1
 62
     7
 10
127.714582093937
 20
165.677891471652
 11
127.714582093937
 21
178.661312612476
  0
LINE
  8
SAKUZU1
 62
     7
 10
73.648444808017
 20
171.292650004282
 11
73.648444808017
 21
188.560979111607
  0
LINE
  8
SAKUZU1
 62
     7
 10
129.390616753592
 20
68.59847179457
 11
130.745282622185
 21
68.724565839845
  0
LINE
  8
SAKUZU1
 62
     7
 10
130.716589013726
 20
165.875412825888
 11
130.716589013726
 21
165.647076485365
  0
LINE
  8
SAKUZU2
 62
     7
 10
66.476580518865
 20
125.553776874864
 11
55.884329881802
 21
113.202635718043
  0
LINE
  8
SAKUZU2
 62
     7
 10
91.477515943608
 20
134.811077110733
 11
87.834678697074
 21
130.890080243015
  0
LINE
  8
SAKUZU2
 62
     7
 10
92.878607123259
 20
140.972644243786
 11
82.04019514512
 21
129.155802915265
  0
LINE
  8
SAKUZU2
 62
     7
 10
122.205959034044
 20
141.239405946166
 11
112.62249417194
 21
130.064563947137
  0
LINE
  8
SAKUZU2
 62
     7
 10
120.874922413376
 20
135.385917169766
 11
117.414227029168
 21
131.660970145434
  0
LINE
  8
SAKUZU2
 62
     7
 10
142.933705800898
 20
125.468291052574
 11
133.829414181899
 21
114.852191153496
  0
LINE
  8
SAKUZU2
 62
     7
 10
66.507404728036
 20
185.488998750236
 11
56.97437915468
 21
174.372971709096
  0
LINE
  8
SAKUZU2
 62
     7
 10
65.183373563266
 20
179.666317809501
 11
61.740892365291
 21
175.960975769508
  0
LINE
  8
SAKUZU2
 62
     7
 10
144.370972623296
 20
174.655336050379
 11
137.483361646546
 21
166.624006513156
  0
LINE
  8
SAKUZU2
 62
     7
 10
143.41436010675
 20
170.448449070698
 11
140.927167441213
 21
167.771339446803
  0
LINE
  8
SAKUZU1
 62
     7
 10
130.71979376364
 20
158.057448722251
 11
130.720034326008
 21
144.476974075937
  0
LINE
  8
SAKUZU1
 62
     7
 10
51.32581633988
 20
192.533419484994
 11
73.648444808017
 21
188.560979111607
  0
LINE
  8
SAKUZU2
 62
     7
 10
149.593950973623
 20
163.405722989259
 11
149.593950973623
 21
175.289509530583
  0
LINE
  8
SAKUZU2
 62
     7
 10
130.719255418107
 20
178.841167569889
 11
149.593950973623
 21
175.289509530583
  0
LINE
  8
SAKUZU2
 62
     7
 10
51.32581633988
 20
193.761676074619
 11
74.862604026571
 21
189.353853620966
  0
LINE
  8
SAKUZU2
 62
     7
 10
51.32581633988
 20
193.276797988106
 11
74.360155291598
 21
189.025742786627
  0
LINE
  8
SAKUZU2
 62
     7
 10
128.552709970747
 20
165.707810021578
 11
128.552709970747
 21
179.208629816801
  0
LINE
  8
SAKUZU2
 62
     7
 10
128.219829535323
 20
165.625421616674
 11
128.219829535323
 21
178.991251067887
  0
LINE
  8
SAKUZU2
 62
     7
 10
74.862604026571
 20
171.166559790064
 11
74.862604026571
 21
189.353853620966
  0
LINE
  8
SAKUZU2
 62
     7
 10
74.360155291598
 20
171.218738999889
 11
74.360155291598
 21
189.025742786627
  0
LINE
  8
SAKUZU2
 62
     7
 10
77.818828000723
 20
188.334536768223
 11
128.219829535323
 21
178.991251067887
  0
LINE
  8
SAKUZU1
 62
     7
 10
77.73681633988
 20
187.833429837661
 11
127.714582093937
 21
178.661312612474
  0
LINE
  8
SAKUZU2
 62
     7
 10
130.721308990208
 20
71.275513094805
 11
149.663470488613
 21
72.849882001599
  0
LINE
  8
SAKUZU1
 62
     7
 10
130.721304546444
 20
71.444244076633
 11
149.402788174127
 21
72.963893582431
  0
LINE
  8
SAKUZU1
 62
     7
 10
150.207765696471
 20
70.656198273115
 11
150.138776390335
 21
70.686371320598
  0
LINE
  8
SAKUZU1
 62
     7
 10
149.402788174127
 20
72.963893582431
 11
149.402788174127
 21
84.95476964083
  0
LINE
  8
SAKUZU1
 62
     7
 10
149.663470488613
 20
72.849882001599
 11
149.402788174127
 21
72.963893582431
  0
LINE
  8
SAKUZU2
 62
     7
 10
75.551856095294
 20
161.458056950076
 11
75.551856095295
 21
92.122391910691
  0
LINE
  8
SAKUZU2
 62
     7
 10
75.291374868751
 20
161.181958433941
 11
75.291374868751
 21
92.122391910691
  0
LINE
  8
SAKUZU1
 62
     7
 10
51.32581633988
 20
65.316101637778
 11
75.03674577821
 21
67.199688381745
  0
LINE
  8
SAKUZU2
 62
     7
 10
51.32581633988
 20
65.024779415782
 11
75.291374868751
 21
67.034977100458
  0
LINE
  8
SAKUZU1
 62
     7
 10
51.32581633988
 20
64.524092254721
 11
75.903779564681
 21
66.674385409448
  0
LINE
  8
SAKUZU2
 62
     7
 10
51.32581633988
 20
64.866508223148
 11
75.551856095295
 21
66.887602526675
  0
LINE
  8
SAKUZU1
 62
     7
 10
75.903779564681
 20
66.674385409448
 11
75.551856095295
 21
66.887602526675
  0
LINE
  8
SAKUZU1
 62
     7
 10
51.32581633988
 20
60.594843817604
 11
75.903779564681
 21
62.964368218014
  0
LINE
  8
SAKUZU1
 62
     7
 10
76.076763245124
 20
62.851624645006
 11
75.903779564681
 21
62.964368218014
  0
LINE
  8
SAKUZU1
 62
     7
 10
164.368104245747
 20
83.116166561679
 11
161.821214221391
 21
81.184349180286
  0
LINE
  8
SAKUZU1
 62
     7
 10
164.368104245747
 20
76.858931404601
 11
161.821214221391
 21
78.790748785995
  0
LINE
  8
SAKUZU1
 62
     7
 10
161.821214221391
 20
78.790748785995
 11
161.821214221391
 21
81.184349180286
  0
LINE
  8
SAKUZU1
 62
     7
 10
161.821214221391
 20
81.184349180286
 11
159.565228875749
 21
81.233746190519
  0
LINE
  8
SAKUZU1
 62
     7
 10
158.110264486216
 20
76.326509792614
 11
164.368104245747
 21
76.858931404601
  0
LINE
  8
SAKUZU1
 62
     7
 10
164.368104245747
 20
76.858931404601
 11
164.368104245747
 21
83.116166561679
  0
LINE
  8
SAKUZU1
 62
     7
 10
164.368104245747
 20
83.116166561679
 11
158.013997754724
 21
83.346781789916
  0
LINE
  8
SAKUZU1
 62
     7
 10
158.110264486217
 20
83.346781789916
 11
158.110264486216
 21
76.326509792614
  0
LINE
  8
SAKUZU1
 62
     7
 10
159.565228875749
 20
77.585246284602
 11
163.13068217197
 21
77.797516678163
  0
LINE
  8
SAKUZU1
 62
     7
 10
163.13068217197
 20
77.797516678163
 11
163.13068217197
 21
82.177581288118
  0
LINE
  8
SAKUZU1
 62
     7
 10
163.13068217197
 20
82.177581288118
 11
159.565228875749
 21
82.306295974324
  0
LINE
  8
SAKUZU1
 62
     7
 10
159.565228875749
 20
82.306295974324
 11
159.565228875749
 21
77.585246284602
  0
LINE
  8
SAKUZU1
 62
     7
 10
161.821214221391
 20
78.790748785995
 11
159.565228875749
 21
78.741351775761
  0
POLYLINE
  8
SAKUZU1
 62
     7
 66
     1
 70
     1
  0
VERTEX
  8
SAKUZU1
 62
     7
 10
160.786714781735
 20
78.184914959729
  0
VERTEX
  8
SAKUZU1
 62
     7
 10
160.792863440508
 20
78.151019249865
  0
VERTEX
  8
SAKUZU1
 62
     7
 10
160.809329127323
 20
78.118696548776
  0
VERTEX
  8
SAKUZU1
 62
     7
 10
160.835479075069
 20
78.089188999738
  0
VERTEX
  8
SAKUZU1
 62
     7
 10
160.87030835592
 20
78.063630561314
  0
VERTEX
  8
SAKUZU1
 62
     7
 10
160.912478500145
 20
78.043003429958
  0
VERTEX
  8
SAKUZU1
 62
     7
 10
160.960368932751
 20
78.028100294762
  0
VERTEX
  8
SAKUZU1
 62
     7
 10
161.01213925127
 20
78.019493874851
  0
VERTEX
  8
SAKUZU1
 62
     7
 10
161.065799951394
 20
78.017514910118
  0
VERTEX
  8
SAKUZU1
 62
     7
 10
161.119288882511
 20
78.022239451067
  0
VERTEX
  8
SAKUZU1
 62
     7
 10
161.170550494995
 20
78.033485936239
  0
VERTEX
  8
SAKUZU1
 62
     7
 10
161.217614833827
 20
78.050822169516
  0
VERTEX
  8
SAKUZU1
 62
     7
 10
161.258673242858
 20
78.073581929175
  0
VERTEX
  8
SAKUZU1
 62
     7
 10
161.292147870456
 20
78.100890570417
  0
VERTEX
  8
SAKUZU1
 62
     7
 10
161.316752305454
 20
78.131698637473
  0
VERTEX
  8
SAKUZU1
 62
     7
 10
161.331541013215
 20
78.164822193603
  0
VERTEX
  8
SAKUZU1
 62
     7
 10
161.335945671992
 20
78.198988319123
  0
VERTEX
  8
SAKUZU1
 62
     7
 10
161.329797013219
 20
78.232884028987
  0
VERTEX
  8
SAKUZU1
 62
     7
 10
161.313331326404
 20
78.265206730077
  0
VERTEX
  8
SAKUZU1
 62
     7
 10
161.287181378658
 20
78.294714279114
  0
VERTEX
  8
SAKUZU1
 62
     7
 10
161.252352097807
 20
78.320272717538
  0
VERTEX
  8
SAKUZU1
 62
     7
 10
161.210181953582
 20
78.340899848894
  0
VERTEX
  8
SAKUZU1
 62
     7
 10
161.162291520977
 20
78.35580298409
  0
VERTEX
  8
SAKUZU1
 62
     7
 10
161.110521202458
 20
78.364409404001
  0
VERTEX
  8
SAKUZU1
 62
     7
 10
161.056860502333
 20
78.366388368734
  0
VERTEX
  8
SAKUZU1
 62
     7
 10
161.003371571216
 20
78.361663827785
  0
VERTEX
  8
SAKUZU1
 62
     7
 10
160.952109958732
 20
78.350417342613
  0
VERTEX
  8
SAKUZU1
 62
     7
 10
160.905045619901
 20
78.333081109336
  0
VERTEX
  8
SAKUZU1
 62
     7
 10
160.863987210869
 20
78.310321349677
  0
VERTEX
  8
SAKUZU1
 62
     7
 10
160.830512583272
 20
78.283012708436
  0
VERTEX
  8
SAKUZU1
 62
     7
 10
160.805908148273
 20
78.25220464138
  0
VERTEX
  8
SAKUZU1
 62
     7
 10
160.791119440512
 20
78.219081085249
  0
SEQEND
  8
SAKUZU1
 62
     7
  0
LINE
  8
SAKUZU1
 62
     7
 10
151.4370577433
 20
177.269875316749
 11
151.433456667244
 21
140.076974096561
  0
LINE
  8
SAKUZU1
 62
     7
 10
150.21722740624
 20
177.524389574848
 11
150.213920947951
 21
140.076974093089
  0
LINE
  8
SAKUZU1
 62
     7
 10
148.970189141448
 20
163.502489025303
 11
148.970189141448
 21
174.882178392224
  0
LINE
  8
SAKUZU1
 62
     7
 10
150.044609345107
 20
163.358922199271
 11
150.044609345108
 21
156.683125005298
  0
LINE
  8
SAKUZU1
 62
     7
 10
49.548604219376
 20
60.373460671719
 11
49.315443824359
 21
60.51199931589
  0
LINE
  8
SAKUZU1
 62
     7
 10
104.778392389186
 20
70.626362148974
 11
127.229128841511
 21
72.367997946737
  0
LINE
  8
SAKUZU2
 62
     7
 10
104.778392389186
 20
70.243917763218
 11
127.853824510043
 21
72.106354635626
  0
LINE
  8
SAKUZU2
 62
     7
 10
104.778392389186
 20
70.446955380889
 11
127.549020184085
 21
72.227984588049
  0
LINE
  8
SAKUZU2
 62
     7
 10
104.778392389186
 20
156.754327273527
 11
127.891754566729
 21
155.786932898243
  0
LINE
  8
SAKUZU2
 62
     7
 10
104.778392389186
 20
156.627248820847
 11
127.565979078151
 21
155.638269957766
  0
LINE
  8
SAKUZU1
 62
     7
 10
104.778392389186
 20
156.454072770276
 11
127.245892579205
 21
155.492203105567
  0
LINE
  8
SAKUZU1
 62
     7
 10
128.201593865487
 20
71.954254812293
 11
127.853824510043
 21
72.106354635626
  0
LINE
  8
SAKUZU2
 62
     7
 10
127.245892579206
 20
155.492203105567
 11
127.243671086509
 21
144.476974075937
  0
LINE
  8
SAKUZU1
 62
     7
 10
127.549020184086
 20
72.227984588049
 11
127.229128841511
 21
72.367997946737
  0
LINE
  8
SAKUZU2
 62
     7
 10
101.170401208334
 20
156.975791429904
 11
101.18238741446
 21
70.115573592769
  0
LINE
  8
SAKUZU2
 62
     7
 10
100.865596882377
 20
156.836698376695
 11
100.877467589934
 21
70.248932891807
  0
LINE
  8
SAKUZU1
 62
     7
 10
100.54570249779
 20
156.697887301921
 11
100.557455023413
 21
70.388922623484
  0
LINE
  8
SAKUZU2
 62
     7
 10
77.73681633988
 20
68.286227505106
 11
100.877525887024
 21
70.248936966188
  0
LINE
  8
SAKUZU1
 62
     7
 10
77.73681633988
 20
68.489736472206
 11
100.557513174154
 21
70.388897190773
  0
LINE
  8
SAKUZU1
 62
     7
 10
77.73681633988
 20
67.898440196352
 11
101.507022203275
 21
69.973621510725
  0
LINE
  8
SAKUZU1
 62
     7
 10
100.877525887024
 20
70.248936966188
 11
100.557513174154
 21
70.388897190773
  0
LINE
  8
SAKUZU1
 62
     7
 10
101.507022203275
 20
69.973621510725
 11
101.182445859097
 21
70.115577677462
  0
LINE
  8
SAKUZU1
 62
     7
 10
104.778392389186
 20
159.310979068587
 11
104.778392389186
 21
67.183287872377
  0
LINE
  8
SAKUZU2
 62
     7
 10
77.73681633988
 20
68.087984139177
 11
101.182445859097
 21
70.115577677462
  0
LINE
  8
SAKUZU1
 62
     7
 10
104.778392389186
 20
70.064480663868
 11
128.201593865487
 21
71.954254812293
  0
LINE
  8
SAKUZU1
 62
     7
 10
128.218357603182
 20
155.935973478244
 11
127.891754566729
 21
155.786932898243
  0
LINE
  8
SAKUZU1
 62
     7
 10
101.532364085809
 20
157.140967962809
 11
101.170401208334
 21
156.975791429904
  0
LINE
  8
SAKUZU2
 62
     7
 10
77.739552339864
 20
158.105795418196
 11
101.170401208334
 21
156.975791429904
  0
LINE
  8
SAKUZU2
 62
     7
 10
77.739552339864
 20
157.979262311332
 11
100.865596882377
 21
156.836698376695
  0
LINE
  8
SAKUZU1
 62
     7
 10
77.739552339864
 20
157.805878683539
 11
100.54570249779
 21
156.697887301921
  0
ARC
  8
SAKUZU1
 62
     7
 10
107.839963647348
 20
162.480126784465
 40
0.407
 50
330.651020534895
 51
0.0
  0
LINE
  8
SAKUZU1
 62
     7
 10
130.719255418107
 20
178.127097628416
 11
148.970189141448
 21
174.882178392224
  0
LINE
  8
SAKUZU2
 62
     7
 10
77.818828000723
 20
188.747160875016
 11
128.552709970747
 21
179.208629816801
  0
POLYLINE
  8
SAKUZU1
 62
     7
 66
     1
 70
     1
  0
VERTEX
  8
SAKUZU1
 62
     7
 10
160.786714781735
 20
81.688202691038
  0
VERTEX
  8
SAKUZU1
 62
     7
 10
160.792863440508
 20
81.654306981174
  0
VERTEX
  8
SAKUZU1
 62
     7
 10
160.809329127323
 20
81.621984280084
  0
VERTEX
  8
SAKUZU1
 62
     7
 10
160.835479075069
 20
81.592476731047
  0
VERTEX
  8
SAKUZU1
 62
     7
 10
160.87030835592
 20
81.566918292623
  0
VERTEX
  8
SAKUZU1
 62
     7
 10
160.912478500145
 20
81.546291161267
  0
VERTEX
  8
SAKUZU1
 62
     7
 10
160.960368932751
 20
81.531388026071
  0
VERTEX
  8
SAKUZU1
 62
     7
 10
161.01213925127
 20
81.52278160616
  0
VERTEX
  8
SAKUZU1
 62
     7
 10
161.065799951394
 20
81.520802641427
  0
VERTEX
  8
SAKUZU1
 62
     7
 10
161.119288882511
 20
81.525527182376
  0
VERTEX
  8
SAKUZU1
 62
     7
 10
161.170550494995
 20
81.536773667548
  0
VERTEX
  8
SAKUZU1
 62
     7
 10
161.217614833827
 20
81.554109900825
  0
VERTEX
  8
SAKUZU1
 62
     7
 10
161.258673242858
 20
81.576869660484
  0
VERTEX
  8
SAKUZU1
 62
     7
 10
161.292147870456
 20
81.604178301726
  0
VERTEX
  8
SAKUZU1
 62
     7
 10
161.316752305454
 20
81.634986368781
  0
VERTEX
  8
SAKUZU1
 62
     7
 10
161.331541013215
 20
81.668109924912
  0
VERTEX
  8
SAKUZU1
 62
     7
 10
161.335945671992
 20
81.702276050432
  0
VERTEX
  8
SAKUZU1
 62
     7
 10
161.329797013219
 20
81.736171760296
  0
VERTEX
  8
SAKUZU1
 62
     7
 10
161.313331326404
 20
81.768494461386
  0
VERTEX
  8
SAKUZU1
 62
     7
 10
161.287181378658
 20
81.798002010423
  0
VERTEX
  8
SAKUZU1
 62
     7
 10
161.252352097807
 20
81.823560448847
  0
VERTEX
  8
SAKUZU1
 62
     7
 10
161.210181953582
 20
81.844187580203
  0
VERTEX
  8
SAKUZU1
 62
     7
 10
161.162291520977
 20
81.859090715399
  0
VERTEX
  8
SAKUZU1
 62
     7
 10
161.110521202458
 20
81.86769713531
  0
VERTEX
  8
SAKUZU1
 62
     7
 10
161.056860502333
 20
81.869676100043
  0
VERTEX
  8
SAKUZU1
 62
     7
 10
161.003371571216
 20
81.864951559094
  0
VERTEX
  8
SAKUZU1
 62
     7
 10
160.952109958732
 20
81.853705073922
  0
VERTEX
  8
SAKUZU1
 62
     7
 10
160.905045619901
 20
81.836368840645
  0
VERTEX
  8
SAKUZU1
 62
     7
 10
160.863987210869
 20
81.813609080986
  0
VERTEX
  8
SAKUZU1
 62
     7
 10
160.830512583272
 20
81.786300439744
  0
VERTEX
  8
SAKUZU1
 62
     7
 10
160.805908148273
 20
81.755492372689
  0
VERTEX
  8
SAKUZU1
 62
     7
 10
160.791119440512
 20
81.722368816558
  0
SEQEND
  8
SAKUZU1
 62
     7
  0
LINE
  8
SAKUZU1
 62
     7
 10
158.110264486217
 20
83.346781789916
 11
159.565228875749
 21
82.306295974324
  0
LINE
  8
SAKUZU1
 62
     7
 10
159.565228875749
 20
77.585246284602
 11
158.110264486216
 21
76.326509792614
  0
LINE
  8
SAKUZU1
 62
     7
 10
158.011905180167
 20
83.346857737582
 11
158.013997754724
 21
76.384242130438
  0
LINE
  8
SAKUZU1
 62
     7
 10
158.013997754724
 20
76.384242130438
 11
158.110264486216
 21
76.384242130438
  0
CIRCLE
  8
SAKUZU2
 62
     7
 10
180.438497311715
 20
113.207984565914
 40
0.128519367024478
  0
CIRCLE
  8
SAKUZU2
 62
     7
 10
181.393208379542
 20
113.207984565914
 40
0.1413713037269258
  0
LINE
  8
SAKUZU1
 62
     7
 10
89.152684691979
 20
61.628610929337
 11
119.532066367363
 21
65.505092326713
  0
LINE
  8
SAKUZU1
 62
     7
 10
92.961063372013
 20
59.276531182018
 11
122.930550544281
 21
63.406166123281
  0
LINE
  8
SAKUZU1
 62
     7
 10
96.769442052047
 20
56.924451434698
 11
125.793334456878
 21
61.638091930168
  0
LINE
  8
SAKUZU1
 62
     7
 10
100.577820732081
 20
54.572371687379
 11
129.434317065433
 21
59.389397098737
  0
LINE
  8
SAKUZU1
 62
     7
 10
87.248495351962
 20
62.804650802997
 11
118.076951169124
 21
66.403781053687
  0
LINE
  8
SAKUZU1
 62
     7
 10
91.056874031996
 20
60.452571055677
 11
121.112312416958
 21
64.529121962074
  0
LINE
  8
SAKUZU1
 62
     7
 10
94.86525271203
 20
58.100491308358
 11
124.410240752936
 21
62.492299708071
  0
LINE
  8
SAKUZU1
 62
     7
 10
98.673631392064
 20
55.748411561038
 11
127.711722439979
 21
60.453282881055
  0
LINE
  8
SAKUZU1
 62
     7
 10
102.482010072098
 20
53.396331813719
 11
130.878734649607
 21
58.497315288643
  0
LINE
  8
SAKUZU1
 62
     7
 10
87.248495351962
 20
62.408067090993
 11
104.017913695354
 21
52.051163911536
  0
LINE
  8
SAKUZU1
 62
     7
 10
104.017913695354
 20
52.051163911536
 11
132.357941607122
 21
57.187163620515
  0
LINE
  8
SUNPOUSEN
 62
     7
 10
185.973241477318
 20
102.584980667188
 11
208.400116297041
 21
102.584980667188
  0
LINE
  8
SUNPOUSEN
 62
     7
 10
179.387261929099
 20
111.395478575391
 11
185.973241477318
 21
102.584980667188
  0
SOLID
  8
SUNPOUSEN
 62
     7
 10
180.597085192962
 20
108.883726773428
 11
181.346311546903
 21
109.411872253706
 12
179.387261929099
 22
111.395478575391
 13
179.387261929099
 23
111.395478575391
  0
LINE
  8
SUNPOUSEN
 62
     7
 10
177.846512315137
 20
48.781044300281
 11
208.004481129027
 21
48.781044300281
  0
LINE
  8
SUNPOUSEN
 62
     7
 10
122.970810985706
 20
92.029023374631
 11
161.128772769502
 21
92.029023374631
  0
TEXT
  8
SUNPOUSEN
 62
     7
 10
131.353396452807
 20
92.935758412353
 40
3.5
  1
ドアサイドビーム
 41
0.9
  0
TEXT
  8
SUNPOUSEN
 62
     7
 10
86.256872324714
 20
174.312005175333
 40
3.5
  1
無目付センサー
  0
TEXT
  8
SUNPOUSEN
 62
     7
 10
178.367354903806
 20
50.01916247441
 40
3.5
  1
フットスイッチ
  0
TEXT
  8
SUNPOUSEN
 62
     7
 10
128.62236396877
 20
38.732897817266
 40
3.5
  1
ゴムマットスイッチ
  0
LINE
  8
SUNPOUSEN
 62
     7
 10
128.078109157244
 20
37.850856395418
 11
165.218127366542
 21
37.850856395418
  0
LINE
  8
SAKUZU2
 62
     7
 10
130.719912552438
 20
157.776127936214
 11
149.812485243831
 21
156.480649226526
  0
LINE
  8
SAKUZU2
 62
     7
 10
130.720007568447
 20
157.551106902482
 11
149.663470488613
 21
156.34618722441
  0
LINE
  8
SAKUZU1
 62
     7
 10
130.720098115999
 20
157.336668262552
 11
149.402788174127
 21
156.197649088026
  0
LINE
  8
SAKUZU1
 62
     7
 10
150.044609345107
 20
156.683125005298
 11
149.812485243831
 21
156.480649226526
  0
LINE
  8
SAKUZU1
 62
     7
 10
76.076763245124
 20
161.835791149684
 11
75.551856095294
 21
161.458056950076
  0
LINE
  8
SAKUZU2
 62
     7
 10
51.32581633988
 20
163.059351823043
 11
75.551856095294
 21
161.458056950076
  0
LINE
  8
SAKUZU2
 62
     7
 10
51.32581633988
 20
162.745112066349
 11
75.291374868751
 21
161.181958433941
  0
LINE
  8
SAKUZU1
 62
     7
 10
51.32581633988
 20
162.43264447398
 11
75.020817050517
 21
160.970334864864
  0
LINE
  8
SAKUZU1
 62
     7
 10
129.390616753591
 20
158.121900554188
 11
129.390616753591
 21
144.476974075937
  0
LINE
  8
SAKUZU2
 62
     7
 10
127.870591495816
 20
155.787818664477
 11
127.868325178269
 21
144.476974075937
  0
LINE
  8
SAKUZU2
 62
     7
 10
127.56578392178
 20
155.638180900974
 11
127.563540748262
 21
144.476974075937
  0
LINE
  8
SAKUZU1
 62
     7
 10
75.291374868751
 20
67.034977100458
 11
75.03674577821
 21
67.199688381745
  0
LINE
  8
SAKUZU1
 62
     7
 10
75.293357062721
 20
161.181816262064
 11
75.020817050517
 21
160.970334864864
  0
LINE
  8
SAKUZU1
 62
     7
 10
100.865596882377
 20
156.836698376695
 11
100.54570249779
 21
156.697887301921
  0
LINE
  8
SAKUZU1
 62
     7
 10
75.903779564681
 20
66.674385409448
 11
75.903779564681
 21
62.964368218014
  0
LINE
  8
SAKUZU1
 62
     7
 10
170.326370568435
 20
72.736316895728
 11
170.326370568435
 21
130.696830233705
  0
LINE
  8
SAKUZU2
 62
     7
 10
179.617177038451
 20
113.042476349505
 11
179.617177038451
 21
113.376217217189
  0
LINE
  8
SAKUZU1
 62
     7
 10
179.617177038451
 20
113.376217217189
 11
176.535554429195
 21
113.329665152212
  0
LINE
  8
SAKUZU1
 62
     7
 10
176.535554429195
 20
113.329665152212
 11
176.535554429195
 21
113.089028414482
  0
LINE
  8
SAKUZU1
 62
     7
 10
179.617177038451
 20
113.042476349505
 11
176.535554429195
 21
113.089028414482
  0
INSERT
  8
SAKUZU1
 62
     7
  2
*U0
 10
0.0
 20
0.0
 30
0.0
  0
LINE
  8
SAKUZU1
 62
     7
 10
149.402788174127
 20
156.197649088026
 11
149.663470488613
 21
156.34618722441
  0
LINE
  8
SAKUZU1
 62
     7
 10
129.390616753592
 20
68.59847179457
 11
128.218357603182
 21
69.180802815185
  0
LINE
  8
SAKUZU2
 62
     7
 10
129.390837847559
 20
179.755947021128
 11
128.552709970747
 21
179.208629816801
  0
LINE
  8
SAKUZU2
 62
     7
 10
150.217712805798
 20
175.696840668942
 11
149.593950973623
 21
175.289509530583
  0
LINE
  8
SAKUZU2
 62
     7
 10
76.076763245124
 20
190.146728130324
 11
74.862604026571
 21
189.353853620966
  0
LINE
  8
SAKUZU2
 62
     7
 10
74.360155291598
 20
189.025742786627
 11
73.648444808017
 21
188.560979111607
  0
LINE
  8
SAKUZU1
 62
     7
 10
36.915507765394
 20
200.935545010713
 11
49.315443824359
 21
198.348332321675
  0
LINE
  8
SAKUZU2
 62
     7
 10
128.219829535323
 20
178.991251067887
 11
127.714582093936
 21
178.661312612475
  0
LINE
  8
SAKUZU2
 62
     7
 10
149.362823095826
 20
175.138577593563
 11
148.970189141448
 21
174.882178392224
  0
LINE
  8
SAKUZU1
 62
     7
 10
49.56581633988
 20
198.52503075898
 11
151.4370577433
 21
177.269875316749
  0
LINE
  8
SAKUZU1
 62
     7
 10
151.437065783428
 20
177.215426556398
 11
170.326370568435
 21
173.21865484209
  0
SOLID
  8
SUNPOUSEN
 62
     7
 10
162.488338130145
 20
74.011005675643
 11
163.273329604297
 21
74.484361950861
 12
161.460765041569
 22
76.602658235705
 13
161.460765041569
 23
76.602658235705
  0
LINE
  8
SAKUZU1
 62
     7
 10
77.73681633988
 20
161.194719379367
 11
128.218357603182
 21
157.678130181512
  0
LINE
  8
SAKUZU1
 62
     7
 10
129.390616753591
 20
158.121900554188
 11
128.218357603182
 21
157.678130181512
  0
LINE
  8
SAKUZU1
 62
     7
 10
76.076763245124
 20
62.851624645006
 11
77.73681633988
 21
63.030566341543
  0
TEXT
  8
MOJI
 62
     7
 10
25.966748078463
 20
262.382124222024
 40
6.0
  1
起動スイッチの種類と取付け例
  0
LINE
  8
SAKUZU1
 62
     7
 10
153.830094942709
 20
125.922627656301
 11
159.24927884634
 21
125.401261052076
  0
LINE
  8
SAKUZU1
 62
     7
 10
159.249278846341
 20
125.401261052076
 11
159.249278846341
 21
119.126646060042
  0
LINE
  8
SAKUZU1
 62
     7
 10
153.830094942709
 20
118.605279455817
 11
153.830094942709
 21
125.922627656301
  0
LINE
  8
SAKUZU1
 62
     7
 10
153.830094942709
 20
118.605279455817
 11
159.24927884634
 21
119.126646060042
  0
LINE
  8
SAKUZU1
 62
     7
 10
155.379493569903
 20
123.239104676542
 11
156.154108421688
 21
123.20056429935
  0
LINE
  8
SAKUZU1
 62
     7
 10
155.379493569903
 20
124.245240054108
 11
156.154108421688
 21
124.173552146027
  0
LINE
  8
SAKUZU1
 62
     7
 10
155.379493569903
 20
123.239104676542
 11
155.379493569903
 21
124.245240054108
  0
LINE
  8
SAKUZU1
 62
     7
 10
156.646876221927
 20
124.136448960754
 11
157.386281307722
 21
124.06801959395
  0
LINE
  8
SAKUZU1
 62
     7
 10
157.386281307722
 20
124.06801959395
 11
157.386281307722
 21
123.139258467576
  0
LINE
  8
SAKUZU1
 62
     7
 10
156.646876221927
 20
123.176047009441
 11
157.386281307722
 21
123.139258467576
  0
LINE
  8
SAKUZU1
 62
     7
 10
156.646876221927
 20
123.176047009441
 11
156.646876221927
 21
124.136448960754
  0
LINE
  8
SAKUZU1
 62
     7
 10
157.784904473908
 20
123.112876409497
 11
157.784904473908
 21
124.027544934558
  0
LINE
  8
SAKUZU1
 62
     7
 10
157.784904473908
 20
123.112876409497
 11
158.489099793713
 21
123.077839702959
  0
LINE
  8
SAKUZU1
 62
     7
 10
158.489099793713
 20
123.962374109029
 11
158.489099793713
 21
123.077839702959
  0
LINE
  8
SAKUZU1
 62
     7
 10
157.784904473908
 20
124.027544934558
 11
158.489099793713
 21
123.962374109029
  0
LINE
  8
SAKUZU1
 62
     7
 10
155.377223756692
 20
121.906168588008
 11
156.151838608477
 21
121.977856496089
  0
LINE
  8
SAKUZU1
 62
     7
 10
155.377223756692
 20
122.912303965574
 11
156.151838608477
 21
122.840616057493
  0
LINE
  8
SAKUZU1
 62
     7
 10
155.377223756692
 20
121.906168588008
 11
155.377223756692
 21
122.912303965574
  0
LINE
  8
SAKUZU1
 62
     7
 10
156.151838608477
 20
122.840616057493
 11
156.146983718198
 21
121.977407192893
  0
LINE
  8
SAKUZU1
 62
     7
 10
156.644606408717
 20
121.911356011086
 11
156.644606408717
 21
122.8717579624
  0
LINE
  8
SAKUZU1
 62
     7
 10
156.644606408717
 20
121.911356011086
 11
157.384011494512
 21
121.979785377891
  0
LINE
  8
SAKUZU1
 62
     7
 10
157.384011494512
 20
122.803328595595
 11
157.384011494512
 21
121.979785377891
  0
LINE
  8
SAKUZU1
 62
     7
 10
156.644606408717
 20
122.8717579624
 11
157.384011494512
 21
122.803328595595
  0
LINE
  8
SAKUZU1
 62
     7
 10
157.782634660698
 20
122.820627049757
 11
158.486829980502
 21
122.755456224229
  0
LINE
  8
SAKUZU1
 62
     7
 10
158.486829980502
 20
122.755456224229
 11
158.486829980502
 21
121.971129350224
  0
LINE
  8
SAKUZU1
 62
     7
 10
157.782634660698
 20
121.905958524696
 11
158.486829980502
 21
121.971129350224
  0
LINE
  8
SAKUZU1
 62
     7
 10
157.782634660698
 20
121.905958524696
 11
157.782634660698
 21
122.820627049757
  0
LINE
  8
SAKUZU1
 62
     7
 10
156.154108421688
 20
124.173552146027
 11
156.154108421688
 21
123.20056429935
  0
LINE
  8
SAKUZU1
 62
     7
 10
156.646876221927
 20
121.550538565012
 11
157.386281307722
 21
121.587327106877
  0
LINE
  8
SAKUZU1
 62
     7
 10
155.379493569903
 20
121.487480897911
 11
156.154108421688
 21
121.526021275103
  0
LINE
  8
SAKUZU1
 62
     7
 10
156.154108421688
 20
120.553033428426
 11
156.154108421688
 21
121.526021275103
  0
LINE
  8
SAKUZU1
 62
     7
 10
157.386281307722
 20
120.658565980503
 11
157.386281307722
 21
121.587327106877
  0
LINE
  8
SAKUZU1
 62
     7
 10
155.379493569903
 20
120.481345520345
 11
156.154108421688
 21
120.553033428426
  0
LINE
  8
SAKUZU1
 62
     7
 10
155.379493569903
 20
121.487480897911
 11
155.379493569903
 21
120.481345520345
  0
LINE
  8
SAKUZU1
 62
     7
 10
156.646876221927
 20
121.550538565012
 11
156.646876221927
 21
120.590136613699
  0
LINE
  8
SAKUZU1
 62
     7
 10
156.646876221927
 20
120.590136613699
 11
157.386281307722
 21
120.658565980503
  0
LINE
  8
SAKUZU1
 62
     7
 10
157.784904473908
 20
120.699040639895
 11
158.489099793713
 21
120.764211465424
  0
LINE
  8
SAKUZU1
 62
     7
 10
157.784904473908
 20
121.613709164956
 11
157.784904473908
 21
120.699040639895
  0
LINE
  8
SAKUZU1
 62
     7
 10
157.784904473908
 20
121.613709164956
 11
158.489099793713
 21
121.648745871494
  0
LINE
  8
SAKUZU1
 62
     7
 10
158.489099793713
 20
120.764211465424
 11
158.489099793713
 21
121.648745871494
  0
LINE
  8
SAKUZU1
 62
     7
 10
75.020817050518
 20
67.198423009993
 11
75.020817050518
 21
77.963398250762
  0
INSERT
  8
SAKUZU1
 62
     7
  2
*U1
 10
0.0
 20
0.0
 30
0.0
  0
LINE
  8
SAKUZU1
 62
     7
 10
127.565979078151
 20
155.638269957766
 11
127.245892579206
 21
155.492203105567
  0
LINE
  8
SAKUZU1
 62
     7
 10
157.557515575106
 20
193.374747747183
 11
155.562972684758
 21
192.07226435669
  0
LINE
  8
SAKUZU1
 62
     7
 10
155.562972684758
 20
192.07226435669
 11
159.012701841292
 21
191.309117550637
  0
LINE
  8
SAKUZU1
 62
     7
 10
157.557515575106
 20
193.374747747183
 11
161.00724473164
 21
192.61160094113
  0
LINE
  8
SAKUZU1
 62
     7
 10
161.00724473164
 20
192.61160094113
 11
159.012701841291
 21
191.309117550637
  0
LINE
  8
SAKUZU1
 62
     7
 10
155.562972684758
 20
192.07226435669
 11
155.562972684758
 21
194.124536173535
  0
LINE
  8
SAKUZU1
 62
     7
 10
157.557515575106
 20
193.374747747183
 11
157.557515575106
 21
195.427019564028
  0
LINE
  8
SAKUZU1
 62
     7
 10
161.00724473164
 20
192.61160094113
 11
161.00724473164
 21
194.362795936622
  0
LINE
  8
SAKUZU1
 62
     7
 10
157.557515575106
 20
195.427019564028
 11
155.562972684758
 21
194.124536173535
  0
LINE
  8
SAKUZU1
 62
     7
 10
157.557515575106
 20
195.427019564028
 11
161.00724473164
 21
194.362795936622
  0
POLYLINE
  8
SAKUZU1
 62
     7
 66
     1
 70
     1
  0
VERTEX
  8
SAKUZU1
 62
     7
 10
157.696548863252
 20
192.332012953872
  0
VERTEX
  8
SAKUZU1
 62
     7
 10
157.704654685309
 20
192.290705754661
  0
VERTEX
  8
SAKUZU1
 62
     7
 10
157.733587615595
 20
192.249705453403
  0
VERTEX
  8
SAKUZU1
 62
     7
 10
157.782235777827
 20
192.210587668683
  0
VERTEX
  8
SAKUZU1
 62
     7
 10
157.84872965041
 20
192.17485567503
  0
VERTEX
  8
SAKUZU1
 62
     7
 10
157.930513911113
 20
192.143882632921
  0
VERTEX
  8
SAKUZU1
 62
     7
 10
158.024445636661
 20
192.118858818995
  0
VERTEX
  8
SAKUZU1
 62
     7
 10
158.126915083519
 20
192.100745884387
  0
VERTEX
  8
SAKUZU1
 62
     7
 10
158.23398440831
 20
192.090239899017
  0
VERTEX
  8
SAKUZU1
 62
     7
 10
158.341538996928
 20
192.08774460201
  0
VERTEX
  8
SAKUZU1
 62
     7
 10
158.445445586848
 20
192.093355886231
  0
VERTEX
  8
SAKUZU1
 62
     7
 10
158.541711106093
 20
192.106858113174
  0
VERTEX
  8
SAKUZU1
 62
     7
 10
158.626636124743
 20
192.127732399831
  0
VERTEX
  8
SAKUZU1
 62
     7
 10
158.696957021959
 20
192.15517655907
  0
VERTEX
  8
SAKUZU1
 62
     7
 10
158.749971405096
 20
192.188135927244
  0
VERTEX
  8
SAKUZU1
 62
     7
 10
158.783641961143
 20
192.225343894317
  0
VERTEX
  8
SAKUZU1
 62
     7
 10
158.796674749511
 20
192.265370578982
  0
VERTEX
  8
SAKUZU1
 62
     7
 10
158.788568927455
 20
192.306677778193
  0
VERTEX
  8
SAKUZU1
 62
     7
 10
158.759635997168
 20
192.347678079451
  0
VERTEX
  8
SAKUZU1
 62
     7
 10
158.710987834937
 20
192.386795864171
  0
VERTEX
  8
SAKUZU1
 62
     7
 10
158.644493962353
 20
192.422527857824
  0
VERTEX
  8
SAKUZU1
 62
     7
 10
158.562709701651
 20
192.453500899932
  0
VERTEX
  8
SAKUZU1
 62
     7
 10
158.468777976103
 20
192.478524713859
  0
VERTEX
  8
SAKUZU1
 62
     7
 10
158.366308529244
 20
192.496637648466
  0
VERTEX
  8
SAKUZU1
 62
     7
 10
158.259239204453
 20
192.507143633837
  0
VERTEX
  8
SAKUZU1
 62
     7
 10
158.151684615836
 20
192.509638930844
  0
VERTEX
  8
SAKUZU1
 62
     7
 10
158.047778025915
 20
192.504027646623
  0
VERTEX
  8
SAKUZU1
 62
     7
 10
157.951512506671
 20
192.490525419679
  0
VERTEX
  8
SAKUZU1
 62
     7
 10
157.86658748802
 20
192.469651133023
  0
VERTEX
  8
SAKUZU1
 62
     7
 10
157.796266590805
 20
192.442206973784
  0
VERTEX
  8
SAKUZU1
 62
     7
 10
157.743252207667
 20
192.40924760561
  0
VERTEX
  8
SAKUZU1
 62
     7
 10
157.709581651621
 20
192.372039638537
  0
SEQEND
  8
SAKUZU1
 62
     7
  0
LINE
  8
SAKUZU1
 62
     7
 10
158.246611806382
 20
192.298691766427
 11
158.246611806382
 21
161.853020433557
  0
ARC
  8
SAKUZU1
 62
     7
 10
158.246611806382
 20
161.554203717095
 40
0.2988167164626532
 50
15.902311078997
 51
164.097688921003
  0
LINE
  8
SAKUZU1
 62
     7
 10
157.959230728454
 20
161.636078903121
 11
158.533992884309
 21
161.636078903121
  0
LINE
  8
SAKUZU1
 62
     7
 10
157.878183758596
 20
160.849019310891
 11
158.615039854168
 21
160.849019310891
  0
LINE
  8
SAKUZU1
 62
     7
 10
157.959230728454
 20
161.636078903121
 11
157.878183758596
 21
160.849019310891
  0
LINE
  8
SAKUZU1
 62
     7
 10
158.533992884309
 20
161.636078903121
 11
158.615039854168
 21
160.849019310891
  0
LINE
  8
SAKUZU1
 62
     7
 10
158.188388677691
 20
160.849019310891
 11
158.188388677691
 21
160.680256784887
  0
LINE
  8
SAKUZU1
 62
     7
 10
158.304834935072
 20
160.849019310891
 11
158.304834935072
 21
160.680256784887
  0
LINE
  8
SAKUZU1
 62
     7
 10
157.455085634301
 20
160.225576588713
 11
159.038137978463
 21
160.225576588713
  0
LINE
  8
SAKUZU1
 62
     7
 10
159.038137978463
 20
160.225576588713
 11
159.038137978463
 21
160.383256784887
  0
LINE
  8
SAKUZU1
 62
     7
 10
158.741137978463
 20
160.680256784887
 11
157.752085634301
 21
160.680256784887
  0
LINE
  8
SAKUZU1
 62
     7
 10
157.455085634301
 20
160.383256784887
 11
157.455085634301
 21
160.225576588713
  0
ARC
  8
SAKUZU1
 62
     7
 10
157.752085634301
 20
160.383256784887
 40
0.297
 50
90.0
 51
180.0
  0
ARC
  8
SAKUZU1
 62
     7
 10
158.741137978463
 20
160.383256784887
 40
0.297
 50
0.0
 51
90.000000000005
  0
POLYLINE
  8
SAKUZU1
 62
     7
 66
     1
  0
VERTEX
  8
SAKUZU1
 62
     7
 10
157.747053701196
 20
160.225576588713
  0
VERTEX
  8
SAKUZU1
 62
     7
 10
157.759877009146
 20
160.148393486983
  0
VERTEX
  8
SAKUZU1
 62
     7
 10
157.771745129129
 20
160.071388036658
  0
VERTEX
  8
SAKUZU1
 62
     7
 10
157.78170287318
 20
159.994737889143
  0
VERTEX
  8
SAKUZU1
 62
     7
 10
157.788795053333
 20
159.918620695843
  0
VERTEX
  8
SAKUZU1
 62
     7
 10
157.79206648162
 20
159.843214108164
  0
VERTEX
  8
SAKUZU1
 62
     7
 10
157.790561970076
 20
159.768695777511
  0
VERTEX
  8
SAKUZU1
 62
     7
 10
157.783379204951
 20
159.695214149645
  0
VERTEX
  8
SAKUZU1
 62
     7
 10
157.770784130147
 20
159.622272370616
  0
VERTEX
  8
SAKUZU1
 62
     7
 10
157.754184966819
 20
159.548742637317
  0
VERTEX
  8
SAKUZU1
 62
     7
 10
157.735037613434
 20
159.473470811562
  0
VERTEX
  8
SAKUZU1
 62
     7
 10
157.714795546436
 20
159.395305517629
  0
VERTEX
  8
SAKUZU1
 62
     7
 10
157.694522706119
 20
159.313539669109
  0
VERTEX
  8
SAKUZU1
 62
     7
 10
157.674468093116
 20
159.228395667109
  0
VERTEX
  8
SAKUZU1
 62
     7
 10
157.654778375611
 20
159.140212629017
  0
VERTEX
  8
SAKUZU1
 62
     7
 10
157.63560022179
 20
159.049329672221
  0
VERTEX
  8
SAKUZU1
 62
     7
 10
157.617080299839
 20
158.956085914112
  0
VERTEX
  8
SAKUZU1
 62
     7
 10
157.599365277945
 20
158.860820472077
  0
VERTEX
  8
SAKUZU1
 62
     7
 10
157.582601824293
 20
158.763872463507
  0
VERTEX
  8
SAKUZU1
 62
     7
 10
157.566936607068
 20
158.665581005788
  0
VERTEX
  8
SAKUZU1
 62
     7
 10
157.552516294458
 20
158.566285216312
  0
VERTEX
  8
SAKUZU1
 62
     7
 10
157.539487554648
 20
158.466324212466
  0
VERTEX
  8
SAKUZU1
 62
     7
 10
157.527997055823
 20
158.366037111639
  0
VERTEX
  8
SAKUZU1
 62
     7
 10
157.51819146617
 20
158.26576303122
  0
VERTEX
  8
SAKUZU1
 62
     7
 10
157.510217453875
 20
158.165841088599
  0
VERTEX
  8
SAKUZU1
 62
     7
 10
157.504221687123
 20
158.066610401164
  0
VERTEX
  8
SAKUZU1
 62
     7
 10
157.5003508341
 20
157.968410086304
  0
VERTEX
  8
SAKUZU1
 62
     7
 10
157.498751562993
 20
157.871579261408
  0
VERTEX
  8
SAKUZU1
 62
     7
 10
157.499570541988
 20
157.776457043865
  0
VERTEX
  8
SAKUZU1
 62
     7
 10
157.502954439269
 20
157.683382551064
  0
VERTEX
  8
SAKUZU1
 62
     7
 10
157.509049923024
 20
157.592694900393
  0
VERTEX
  8
SAKUZU1
 62
     7
 10
157.518003661437
 20
157.504733209242
  0
VERTEX
  8
SAKUZU1
 62
     7
 10
157.529962322696
 20
157.419836595
  0
VERTEX
  8
SAKUZU1
 62
     7
 10
157.545072574986
 20
157.338344175055
  0
VERTEX
  8
SAKUZU1
 62
     7
 10
157.563481086492
 20
157.260595066796
  0
VERTEX
  8
SAKUZU1
 62
     7
 10
157.585334525401
 20
157.186928387613
  0
VERTEX
  8
SAKUZU1
 62
     7
 10
157.610779559899
 20
157.117683254894
  0
VERTEX
  8
SAKUZU1
 62
     7
 10
157.639962858171
 20
157.053198786028
  0
VERTEX
  8
SAKUZU1
 62
     7
 10
157.673031088404
 20
156.993814098404
  0
VERTEX
  8
SAKUZU1
 62
     7
 10
157.710130918783
 20
156.939868309411
  0
VERTEX
  8
SAKUZU1
 62
     7
 10
157.751409017495
 20
156.891700536438
  0
VERTEX
  8
SAKUZU1
 62
     7
 10
157.797012052725
 20
156.849649896874
  0
VERTEX
  8
SAKUZU1
 62
     7
 10
157.847086692659
 20
156.814055508108
  0
VERTEX
  8
SAKUZU1
 62
     7
 10
157.901779605483
 20
156.785256487528
  0
VERTEX
  8
SAKUZU1
 62
     7
 10
157.961237459383
 20
156.763591952523
  0
VERTEX
  8
SAKUZU1
 62
     7
 10
158.025606922546
 20
156.749401020484
  0
VERTEX
  8
SAKUZU1
 62
     7
 10
158.095034663156
 20
156.743022808797
  0
VERTEX
  8
SAKUZU1
 62
     7
 10
158.169388586564
 20
156.744348750277
  0
VERTEX
  8
SAKUZU1
 62
     7
 10
158.246611806382
 20
156.750179121145
  0
SEQEND
  8
SAKUZU1
 62
     7
  0
POLYLINE
  8
SAKUZU1
 62
     7
 66
     1
  0
VERTEX
  8
SAKUZU1
 62
     7
 10
158.746169911568
 20
160.225576588713
  0
VERTEX
  8
SAKUZU1
 62
     7
 10
158.733346603618
 20
160.148393486983
  0
VERTEX
  8
SAKUZU1
 62
     7
 10
158.721478483634
 20
160.071388036658
  0
VERTEX
  8
SAKUZU1
 62
     7
 10
158.711520739583
 20
159.994737889143
  0
VERTEX
  8
SAKUZU1
 62
     7
 10
158.704428559431
 20
159.918620695843
  0
VERTEX
  8
SAKUZU1
 62
     7
 10
158.701157131143
 20
159.843214108164
  0
VERTEX
  8
SAKUZU1
 62
     7
 10
158.702661642687
 20
159.768695777511
  0
VERTEX
  8
SAKUZU1
 62
     7
 10
158.709844407812
 20
159.695214149645
  0
VERTEX
  8
SAKUZU1
 62
     7
 10
158.722439482616
 20
159.622272370616
  0
VERTEX
  8
SAKUZU1
 62
     7
 10
158.739038645944
 20
159.548742637317
  0
VERTEX
  8
SAKUZU1
 62
     7
 10
158.758185999329
 20
159.473470811562
  0
VERTEX
  8
SAKUZU1
 62
     7
 10
158.778428066328
 20
159.395305517629
  0
VERTEX
  8
SAKUZU1
 62
     7
 10
158.798700906644
 20
159.31353966911
  0
VERTEX
  8
SAKUZU1
 62
     7
 10
158.818755519648
 20
159.228395667109
  0
VERTEX
  8
SAKUZU1
 62
     7
 10
158.838445237153
 20
159.140212629017
  0
VERTEX
  8
SAKUZU1
 62
     7
 10
158.857623390974
 20
159.049329672222
  0
VERTEX
  8
SAKUZU1
 62
     7
 10
158.876143312924
 20
158.956085914112
  0
VERTEX
  8
SAKUZU1
 62
     7
 10
158.893858334819
 20
158.860820472078
  0
VERTEX
  8
SAKUZU1
 62
     7
 10
158.910621788471
 20
158.763872463507
  0
VERTEX
  8
SAKUZU1
 62
     7
 10
158.926287005695
 20
158.665581005789
  0
VERTEX
  8
SAKUZU1
 62
     7
 10
158.940707318306
 20
158.566285216312
  0
VERTEX
  8
SAKUZU1
 62
     7
 10
158.953736058116
 20
158.466324212466
  0
VERTEX
  8
SAKUZU1
 62
     7
 10
158.965226556941
 20
158.366037111639
  0
VERTEX
  8
SAKUZU1
 62
     7
 10
158.975032146594
 20
158.265763031221
  0
VERTEX
  8
SAKUZU1
 62
     7
 10
158.983006158889
 20
158.1658410886
  0
VERTEX
  8
SAKUZU1
 62
     7
 10
158.989001925641
 20
158.066610401164
  0
VERTEX
  8
SAKUZU1
 62
     7
 10
158.992872778663
 20
157.968410086304
  0
VERTEX
  8
SAKUZU1
 62
     7
 10
158.994472049771
 20
157.871579261408
  0
VERTEX
  8
SAKUZU1
 62
     7
 10
158.993653070776
 20
157.776457043865
  0
VERTEX
  8
SAKUZU1
 62
     7
 10
158.990269173495
 20
157.683382551064
  0
VERTEX
  8
SAKUZU1
 62
     7
 10
158.98417368974
 20
157.592694900393
  0
VERTEX
  8
SAKUZU1
 62
     7
 10
158.975219951326
 20
157.504733209242
  0
VERTEX
  8
SAKUZU1
 62
     7
 10
158.963261290068
 20
157.419836595
  0
VERTEX
  8
SAKUZU1
 62
     7
 10
158.948151037778
 20
157.338344175055
  0
VERTEX
  8
SAKUZU1
 62
     7
 10
158.929742526272
 20
157.260595066796
  0
VERTEX
  8
SAKUZU1
 62
     7
 10
158.907889087362
 20
157.186928387613
  0
VERTEX
  8
SAKUZU1
 62
     7
 10
158.882444052865
 20
157.117683254894
  0
VERTEX
  8
SAKUZU1
 62
     7
 10
158.853260754592
 20
157.053198786028
  0
VERTEX
  8
SAKUZU1
 62
     7
 10
158.820192524359
 20
156.993814098404
  0
VERTEX
  8
SAKUZU1
 62
     7
 10
158.78309269398
 20
156.939868309411
  0
VERTEX
  8
SAKUZU1
 62
     7
 10
158.741814595268
 20
156.891700536438
  0
VERTEX
  8
SAKUZU1
 62
     7
 10
158.696211560039
 20
156.849649896874
  0
VERTEX
  8
SAKUZU1
 62
     7
 10
158.646136920105
 20
156.814055508108
  0
VERTEX
  8
SAKUZU1
 62
     7
 10
158.59144400728
 20
156.785256487528
  0
VERTEX
  8
SAKUZU1
 62
     7
 10
158.53198615338
 20
156.763591952523
  0
VERTEX
  8
SAKUZU1
 62
     7
 10
158.467616690218
 20
156.749401020483
  0
VERTEX
  8
SAKUZU1
 62
     7
 10
158.398188949608
 20
156.743022808797
  0
VERTEX
  8
SAKUZU1
 62
     7
 10
158.323835026199
 20
156.744348750277
  0
VERTEX
  8
SAKUZU1
 62
     7
 10
158.246611806382
 20
156.750179121145
  0
SEQEND
  8
SAKUZU1
 62
     7
  0
LINE
  8
SAKUZU1
 62
     7
 10
157.747053701196
 20
160.225576588713
 11
158.746169911568
 21
160.225576588713
  0
INSERT
  8
SAKUZU1
 62
     7
  2
*U2
 10
0.0
 20
0.0
 30
0.0
  0
TEXT
  8
SUNPOUSEN
 62
     7
 10
174.31037442891
 20
219.88087400452
 40
3.85
  1
引張りスイッチ
 41
0.88
  0
LINE
  8
SUNPOUSEN
 62
     7
 10
173.072949200087
 20
218.78087400452
 11
202.46478895765
 21
218.78087400452
  0
LINE
  8
SUNPOUSEN
 62
     7
 10
159.282380153373
 20
194.894907750325
 11
173.072949200087
 21
218.78087400452
  0
SOLID
  8
SUNPOUSEN
 62
     7
 10
160.187273462988
 20
197.53190178571
 11
160.99360161989
 21
197.095882656355
 12
159.282380153373
 22
194.894907750325
 13
159.282380153373
 23
194.894907750325
  0
LINE
  8
SAKUZU1
 62
     7
 10
153.698116104739
 20
125.735716160427
 11
153.698116104739
 21
118.418367959943
  0
LINE
  8
SAKUZU1
 62
     7
 10
153.698116104739
 20
118.418367959943
 11
159.138110946204
 21
118.969207497715
  0
LINE
  8
SAKUZU1
 62
     7
 10
153.830094942709
 20
118.605279455817
 11
153.698116104739
 21
118.418367959943
  0
LINE
  8
SAKUZU1
 62
     7
 10
159.249278846341
 20
119.126646060042
 11
159.138110946204
 21
118.969207497715
  0
LINE
  8
SAKUZU1
 62
     7
 10
153.830094942709
 20
125.922627656301
 11
153.698116104739
 21
125.735716160427
  0
INSERT
  8
SUNPOUSEN
 62
     7
  2
*X3
 10
0.0
 20
0.0
 30
0.0
  0
INSERT
  8
SUNPOUSEN
 62
     7
  2
*X4
 10
0.0
 20
0.0
 30
0.0
  0
LINE
  8
図面枠
 62
     7
 10
360.919566094904
 20
257.5339834024
 11
360.919566094904
 21
-4.288998569881
  0
LINE
  8
図面枠
 62
     7
 10
291.079566094904
 20
257.5339834024
 11
291.079566094904
 21
-4.288998569881
  0
LINE
  8
図面枠
 62
     7
 10
251.079566094904
 20
257.5339834024
 11
251.079566094904
 21
-4.288998569881
  0
LINE
  8
図面枠
 62
     7
 10
216.079566094904
 20
257.5339834024
 11
216.079566094904
 21
-4.288998569881
  0
LINE
  8
図面枠
 62
     7
 10
391.079566094904
 20
257.5339834024
 11
391.079566094904
 21
-4.288998569881
  0
LINE
  8
MOJI
 62
     7
 10
375.079566094903
 20
257.5339834024
 11
375.079566094903
 21
-4.288998569881
  0
TEXT
  8
MOJI
 62
     7
 10
254.4692
 20
154.756926209547
 40
5.0
  1
押ボタンスイッチ
 41
0.72
  0
TEXT
  8
MOJI
 62
     7
 10
366.277806615932
 20
155.883465579983
 40
3.5
  1
壁
  0
INSERT
  8
MOJI
 62
     7
  2
*X5
 10
0.0
 20
0.0
 30
0.0
  0
TEXT
  8
MOJI
 62
     7
 10
292.596376085633
 20
28.338417928241
 40
3.5
  1
範囲が広いです。
  0
TEXT
  8
MOJI
 62
     7
 10
292.596376085633
 20
34.276250956127
 40
3.5
  1
ワンステップで確実に動作し、使用
  0
TEXT
  8
MOJI
 62
     7
 10
292.596376085633
 20
90.132805836317
 40
3.5
  1
照合して、入退出の制限をします。
  0
TEXT
  8
MOJI
 62
     7
 10
292.596376085633
 20
95.817301571826
 40
3.5
  1
テンキーから入力された暗証番号を
  0
TEXT
  8
MOJI
 62
     7
 10
292.596376085633
 20
108.006789926792
 40
3.5
  1
保持を要する出入口管理に適しています。
 41
0.87
  0
TEXT
  8
MOJI
 62
     7
 10
292.596376085633
 20
114.129787083798
 40
3.5
  1
専用のカードを読み取り動作し、秘密
 41
0.94
  0
TEXT
  8
MOJI
 62
     7
 10
292.596376085633
 20
137.7266589778
 40
3.5
  1
ままヒモを引張り動作します。
  0
TEXT
  8
MOJI
 62
     7
 10
292.596376085633
 20
143.741990415804
 40
3.5
  1
トラック、フォークリフトに乗った
  0
TEXT
  8
MOJI
 62
     7
 10
292.596376085633
 20
152.863606008894
 40
3.5
  1
実に動作します。
 51
1.0
  0
LINE
  8
MOJI
 62
     7
 10
251.079566094904
 20
86.006356418423
 11
391.079566094904
 21
86.006356418423
  0
LINE
  8
図面枠
 62
     7
 10
216.079566094904
 20
134.707342634563
 11
391.079566094904
 21
134.707342634563
  0
INSERT
  8
MOJI
 62
     7
  2
*X6
 10
0.0
 20
0.0
 30
0.0
  0
LINE
  8
MOJI
 62
     7
 10
251.079566094904
 20
103.452332332196
 11
391.079566094904
 21
103.452332332196
  0
LINE
  8
MOJI
 62
     7
 10
251.079566094904
 20
24.549174788293
 11
391.079566094904
 21
24.549174788293
  0
LINE
  8
MOJI
 62
     7
 10
251.079566094904
 20
11.359470653135
 11
391.079566094904
 21
11.359470653134
  0
INSERT
  8
MOJI
 62
     7
  2
*X7
 10
0.0
 20
0.0
 30
0.0
  0
LINE
  8
MOJI
 62
     7
 10
251.079566094904
 20
122.057835742632
 11
391.079566094904
 21
122.057835742632
  0
LINE
  8
MOJI
 62
     7
 10
251.079566094904
 20
150.007342634563
 11
391.079566094904
 21
150.007342634563
  0
TEXT
  8
MOJI
 62
     7
 10
254.3049
 20
1.350105273724
 40
5.0
  1
ペダルスイッチ
 41
0.82
  0
TEXT
  8
MOJI
 62
     7
 10
254.4692
 20
15.363556501642
 40
5.0
  1
フットスイッチ
 41
0.82
  0
TEXT
  8
MOJI
 62
     7
 10
254.3049
 20
30.823992844503
 40
5.0
  1
ゴムマットスイッチ
 41
0.63
  0
TEXT
  8
MOJI
 62
     7
 10
219.209448367653
 20
14.553287250734
 40
5.0
  1
足踏タイプ
  0
TEXT
  8
MOJI
 62
     7
 10
254.4692
 20
92.080780159592
 40
5.0
  1
テンキースイッチ
 41
0.72
  0
TEXT
  8
MOJI
 62
     7
 10
254.9122
 20
110.063775693542
 40
5.0
  1
磁気カードスイッチ
 41
0.63
  0
TEXT
  8
MOJI
 62
     7
 10
219.528499310178
 20
86.328792652693
 40
5.0
  1
特殊タイプ
  0
TEXT
  8
MOJI
 62
     7
 10
254.4692
 20
142.514063543907
 40
5.0
  1
引張りスイッチ
 41
0.82
  0
TEXT
  8
MOJI
 62
     7
 10
254.4692
 20
126.107873388466
 40
5.0
  1
リモコンスイッチ
 41
0.72
  0
TEXT
  8
MOJI
 62
     7
 10
219.47455990202
 20
154.756959232162
 40
5.0
  1
手押タイプ
  0
TEXT
  8
MOJI
 62
     7
 10
377.7307
 20
37.604171277727
 40
3.0
  1
喫茶店
 41
1.08
  0
TEXT
  8
MOJI
 62
     7
 10
377.7307
 20
19.949921175671
 40
3.0
  1
病　院
 41
1.08
  0
TEXT
  8
MOJI
 62
     7
 10
377.7307
 20
12.759645611941
 40
3.0
  1
手術室
 41
1.08
  0
TEXT
  8
MOJI
 62
     7
 10
377.7307
 20
-2.520575852702
 40
3.0
  1
手術室
 41
1.08
  0
TEXT
  8
MOJI
 62
     7
 10
377.7307
 20
6.04999557587
 40
3.0
  1
病　院
 41
1.08
  0
TEXT
  8
MOJI
 62
     7
 10
377.7307
 20
31.670043029951
 40
3.0
  1
一般店舗
 41
0.8
  0
TEXT
  8
MOJI
 62
     7
 10
377.7307
 20
25.793573606513
 40
3.0
  1
ビ  ル
 41
1.08
  0
TEXT
  8
MOJI
 62
     7
 10
382.740942474859
 20
3.244596211479
 40
0.7
  1
●
  0
TEXT
  8
MOJI
 62
     7
 10
367.651390874679
 20
2.730722113591
 40
0.7
  1
●
  0
TEXT
  8
MOJI
 62
     7
 10
362.042994596467
 20
-2.553712960402
 40
3.5
  1
　床
  0
TEXT
  8
MOJI
 62
     7
 10
362.042994596467
 20
6.189498066686
 40
3.5
  1
　壁
  0
TEXT
  8
MOJI
 62
     7
 10
366.412694797658
 20
16.147528398576
 40
3.5
  1
壁
  0
TEXT
  8
MOJI
 62
     7
 10
382.740942474859
 20
17.551152088204
 40
0.7
  1
●
  0
TEXT
  8
MOJI
 62
     7
 10
363.541531830466
 20
32.178696664094
 40
3.5
  1
床 置
  0
TEXT
  8
MOJI
 62
     7
 10
382.538247529915
 20
29.44128670612
 40
0.7
  1
●
  0
TEXT
  8
MOJI
 62
     7
 10
382.538247529915
 20
35.995906099683
 40
0.7
  1
●
  0
TEXT
  8
MOJI
 62
     7
 10
377.7307
 20
117.20124591359
 40
3.0
  1
貸金庫室
 41
0.82
  0
TEXT
  8
MOJI
 62
     7
 10
377.7307
 20
105.099572137541
 40
3.0
  1
電算室
 41
1.08
  0
TEXT
  8
MOJI
 62
     7
 10
377.7307
 20
111.050637267754
 40
3.0
  1
研究室
 41
1.08
  0
TEXT
  8
MOJI
 62
     7
 10
377.7307
 20
99.178883572408
 40
3.0
  1
貸金庫室
 41
0.8
  0
TEXT
  8
MOJI
 62
     7
 10
377.7307
 20
93.072645022915
 40
3.0
  1
研究室
 41
1.08
  0
TEXT
  8
MOJI
 62
     7
 10
377.7307
 20
87.276834590596
 40
3.0
  1
電算室
 41
1.08
  0
TEXT
  8
MOJI
 62
     7
 10
377.7307
 20
123.184559326451
 40
3.0
  1
邸　宅
 41
1.08
  0
TEXT
  8
MOJI
 62
     7
 10
366.340339312154
 20
93.297382006266
 40
3.5
  1
壁
  0
TEXT
  8
MOJI
 62
     7
 10
382.538247529915
 20
91.33346223279
 40
0.7
  1
●
  0
TEXT
  8
MOJI
 62
     7
 10
382.538247529915
 20
97.233956065028
 40
0.7
  1
●
  0
TEXT
  8
MOJI
 62
     7
 10
366.340339312154
 20
111.279843385385
 40
3.5
  1
壁
  0
TEXT
  8
MOJI
 62
     7
 10
382.538247529915
 20
109.430424806869
 40
0.7
  1
●
  0
TEXT
  8
MOJI
 62
     7
 10
382.538247529915
 20
115.325433336026
 40
0.7
  1
●
  0
TEXT
  8
MOJI
 62
     7
 10
364.302778168984
 20
136.53132503686
 40
3.5
  1
天井
  0
TEXT
  8
MOJI
 62
     7
 10
363.99156893662
 20
126.680209663465
 40
3.5
  1
車両
  0
TEXT
  8
MOJI
 62
     7
 10
382.538247529915
 20
127.878806233879
 40
0.7
  1
●
  0
TEXT
  8
MOJI
 62
     7
 10
366.340339312154
 20
144.574863330914
 40
3.5
  1
壁
  0
TEXT
  8
MOJI
 62
     7
 10
367.651390874679
 20
141.937010392798
 40
0.7
  1
●
  0
TEXT
  8
MOJI
 62
     7
 10
363.527623924245
 20
150.52957422322
 40
3.5
  1
縦 枠
  0
TEXT
  8
MOJI
 62
     7
 10
367.651390874679
 20
154.153695906518
 40
0.7
  1
●
  0
TEXT
  8
MOJI
 62
     7
 10
393.858833900039
 20
138.357814372145
 40
5.0
  1
Ｄ
  7
ＭＳゴシック
  0
POLYLINE
  8
図面枠
 62
     7
 66
     1
 70
     1
  0
VERTEX
  8
図面枠
 62
     7
 10
391.079566094904
 20
145.973673620481
  0
VERTEX
  8
図面枠
 62
     7
 10
403.079566094904
 20
145.973673620481
  0
VERTEX
  8
図面枠
 62
     7
 10
403.079566094904
 20
120.973673620481
  0
VERTEX
  8
図面枠
 62
     7
 10
391.079566094904
 20
120.973673620481
  0
SEQEND
  8
図面枠
 62
     7
  0
TEXT
  8
図面枠
  6
CONTINUOUS
 62
     7
 10
393.622052252398
 20
125.021807549305
 40
5.0
  1
１
  7
ＭＳゴシック
  0
TEXT
  8
図面枠
  6
CONTINUOUS
 62
     7
 10
395.41789440262
 20
132.651202788332
 40
2.5
  1
｜
  7
ＭＳゴシック
  0
TEXT
  8
MOJI
 62
     7
 10
292.596376085633
 20
158.986603165899
 40
3.5
  1
メカニカルスイッチの為、堅牢で確
  0
TEXT
  8
MOJI
 62
     7
 10
292.668639028034
 20
233.802981644077
 40
3.5
  1
反射レベルを分析して信号を出します。
 41
0.9
  0
TEXT
  8
MOJI
 62
     7
 10
292.668639028034
 20
239.802981644077
 40
3.5
  1
遠近赤外線を投光して、人や物に当った
 41
0.89
  0
TEXT
  8
MOJI
 62
     7
 10
292.81789783149
 20
174.230988794946
 40
3.5
  1
表面の化粧押板を押して動作します。
 41
0.98
  0
TEXT
  8
MOJI
 62
     7
 10
292.81789783149
 20
168.150939536742
 40
3.5
  1
マットなどを設置できない場合に最適です。
 41
0.825
  0
LINE
  8
図面枠
 62
     7
 10
216.079566094904
 20
212.5339834024
 11
391.079566094904
 21
212.5339834024
  0
LINE
  8
図面枠
 62
     7
 10
216.079566094904
 20
247.5339834024
 11
391.079566094904
 21
247.5339834024
  0
LINE
  8
図面枠
 62
     7
 10
26.079566094904
 20
257.5339834024
 11
391.079566094904
 21
257.5339834024
  0
TEXT
  8
MOJI
 62
     7
 10
292.993412435094
 20
222.529211323769
 40
3.5
  1
無目付センサー等の、不感地帯のできる
 41
0.89
  0
TEXT
  8
MOJI
 62
     7
 10
292.37486756022
 20
216.227581710986
 40
3.5
  1
スイッチの補助スイッチとして最適です。
 41
0.88
  0
LINE
  8
MOJI
 62
     7
 10
251.079566094904
 20
229.5339834024
 11
391.079566094904
 21
229.5339834024
  0
TEXT
  8
MOJI
 62
     7
 10
219.600298425491
 20
250.0192
 40
5.0
  1
作動方法
 41
1.25
  0
TEXT
  8
MOJI
 62
     7
 10
260.44126967826
 20
250.0192
 40
5.0
  1
スイッチ
  0
TEXT
  8
MOJI
 62
     7
 10
254.4692
 20
173.530893177854
 40
5.0
  1
ワイヤレス
 41
0.82
  0
TEXT
  8
MOJI
 62
     7
 10
254.4692
 20
167.549844880896
 40
5.0
  1
タッチスイッチ
 41
0.82
  0
TEXT
  8
MOJI
 62
     7
 10
254.469179582529
 20
218.87264984383
 40
5.0
  1
ドアサイドビーム
 41
0.71
  0
TEXT
  8
MOJI
 62
     7
 10
254.9122098538
 20
236.834719622123
 40
5.0
  1
赤外線スイッチ
 41
0.8
  0
TEXT
  8
MOJI
 62
     7
 10
220.234100803367
 20
230.100518618605
 40
5.0
  1
無接触タイプ
 41
0.8
  0
TEXT
  8
MOJI
 62
     7
 10
216.0796
 20
262.217014654391
 40
6.0
  1
主な起動スイッチの種類と特長
  0
TEXT
  8
MOJI
 62
     7
 10
310.10108209645
 20
250.0192
 40
5.0
  1
特　　　　長
  0
TEXT
  8
MOJI
 62
     7
 10
364.137602481879
 20
248.864194967911
 40
3.0
  1
場所
 41
1.2
  0
TEXT
  8
MOJI
 62
     7
 10
377.680335930771
 20
250.0192
 40
5.0
  1
用途
  0
TEXT
  8
MOJI
 62
     7
 10
377.7307
 20
237.125119909685
 40
3.0
  1
ビ　ル
 41
1.08
  0
TEXT
  8
MOJI
 62
     7
 10
377.7307
 20
230.547938743106
 40
3.0
  1
工　場
 41
1.1
  0
TEXT
  8
MOJI
 62
     7
 10
377.730657301659
 20
243.642666164896
 40
3.0
  1
一般店舗
 41
0.8
  0
TEXT
  8
MOJI
 62
     7
 10
377.430657301659
 20
175.712866915607
 40
3.0
  1
一般店舗
 41
0.8
  0
TEXT
  8
MOJI
 62
     7
 10
366.47506745407
 20
225.027096328376
 40
3.5
  1
壁
  0
TEXT
  8
MOJI
 62
     7
 10
363.575045653916
 20
161.268026101786
 40
3.5
  1
方 立
  0
TEXT
  8
MOJI
 62
     7
 10
367.651390874679
 20
160.272817345991
 40
0.7
  1
●
  0
TEXT
  8
MOJI
 62
     7
 10
366.395521441971
 20
167.457379581544
 40
3.5
  1
壁
  0
TEXT
  8
MOJI
 62
     7
 10
367.651390874679
 20
173.169876513452
 40
0.7
  1
●
  0
TEXT
  8
MOJI
 62
     7
 10
362.903024086393
 20
219.27422852487
 40
3.5
  1
サッシ
 41
0.9
  0
TEXT
  8
MOJI
 62
     7
 10
363.121306823674
 20
213.906853126369
 40
3.5
  1
縦 枠
  0
TEXT
  8
MOJI
 62
     7
 10
363.121306823674
 20
175.198766820103
 40
3.5
  1
ド ア
  0
TEXT
  8
MOJI
 62
     7
 10
367.651390874679
 20
223.2235302708
 40
0.7
  1
●
  0
TEXT
  8
MOJI
 62
     7
 10
367.651390874679
 20
241.379747641566
 40
0.7
  1
●
  0
TEXT
  8
MOJI
 62
     7
 10
364.426257108247
 20
230.325178013837
 40
3.5
  1
無目
  0
TEXT
  8
MOJI
 62
     7
 10
367.651390874679
 20
234.598242625534
 40
0.7
  1
●
  0
TEXT
  8
MOJI
 62
     7
 10
364.302778168984
 20
236.744119710298
 40
3.5
  1
天井
  0
TEXT
  8
MOJI
 62
     7
 10
366.340339312154
 20
243.096907813644
 40
3.5
  1
壁
  0
TEXT
  8
MOJI
 62
     7
 10
364.137602481879
 20
252.812855207482
 40
3.0
  1
設置
 41
1.2
  0
LINE
  8
SUNPOUSEN
 62
     7
 10
162.823620806815
 20
74.345041536784
 11
177.846512315137
 21
48.781044300281
  0
POLYLINE
  8
SAKUZU1
 62
     7
 66
     1
 70
     1
  0
VERTEX
  8
SAKUZU1
 62
     7
 10
128.685831704533
 20
99.009990403873
  0
VERTEX
  8
SAKUZU1
 62
     7
 10
128.737530275288
 20
99.017980717646
  0
VERTEX
  8
SAKUZU1
 62
     7
 10
128.787242098962
 20
99.041644595686
  0
VERTEX
  8
SAKUZU1
 62
     7
 10
128.833056778049
 20
99.080072648432
  0
VERTEX
  8
SAKUZU1
 62
     7
 10
128.873213680126
 20
99.131788107367
  0
VERTEX
  8
SAKUZU1
 62
     7
 10
128.906169597966
 20
99.194803576407
  0
VERTEX
  8
SAKUZU1
 62
     7
 10
128.930658054129
 20
99.266697406417
  0
VERTEX
  8
SAKUZU1
 62
     7
 10
128.945737970976
 20
99.344706757826
  0
VERTEX
  8
SAKUZU1
 62
     7
 10
128.950829835761
 20
99.425833775009
  0
VERTEX
  8
SAKUZU1
 62
     7
 10
128.945737970976
 20
99.506960792192
  0
VERTEX
  8
SAKUZU1
 62
     7
 10
128.930658054129
 20
99.584970143602
  0
VERTEX
  8
SAKUZU1
 62
     7
 10
128.906169597966
 20
99.656863973611
  0
VERTEX
  8
SAKUZU1
 62
     7
 10
128.873213680126
 20
99.719879442651
  0
VERTEX
  8
SAKUZU1
 62
     7
 10
128.833056778049
 20
99.771594901586
  0
VERTEX
  8
SAKUZU1
 62
     7
 10
128.787242098962
 20
99.810022954332
  0
VERTEX
  8
SAKUZU1
 62
     7
 10
128.737530275288
 20
99.833686832373
  0
VERTEX
  8
SAKUZU1
 62
     7
 10
128.685831704533
 20
99.841677146145
  0
VERTEX
  8
SAKUZU1
 62
     7
 10
128.634133133778
 20
99.833686832373
  0
VERTEX
  8
SAKUZU1
 62
     7
 10
128.584421310104
 20
99.810022954332
  0
VERTEX
  8
SAKUZU1
 62
     7
 10
128.538606631017
 20
99.771594901586
  0
VERTEX
  8
SAKUZU1
 62
     7
 10
128.49844972894
 20
99.719879442651
  0
VERTEX
  8
SAKUZU1
 62
     7
 10
128.4654938111
 20
99.656863973611
  0
VERTEX
  8
SAKUZU1
 62
     7
 10
128.441005354937
 20
99.584970143602
  0
VERTEX
  8
SAKUZU1
 62
     7
 10
128.42592543809
 20
99.506960792192
  0
VERTEX
  8
SAKUZU1
 62
     7
 10
128.420833573305
 20
99.425833775009
  0
VERTEX
  8
SAKUZU1
 62
     7
 10
128.42592543809
 20
99.344706757826
  0
VERTEX
  8
SAKUZU1
 62
     7
 10
128.441005354937
 20
99.266697406417
  0
VERTEX
  8
SAKUZU1
 62
     7
 10
128.4654938111
 20
99.194803576407
  0
VERTEX
  8
SAKUZU1
 62
     7
 10
128.49844972894
 20
99.131788107367
  0
VERTEX
  8
SAKUZU1
 62
     7
 10
128.538606631017
 20
99.080072648432
  0
VERTEX
  8
SAKUZU1
 62
     7
 10
128.584421310104
 20
99.041644595686
  0
VERTEX
  8
SAKUZU1
 62
     7
 10
128.634133133778
 20
99.017980717646
  0
SEQEND
  8
SAKUZU1
 62
     7
  0
INSERT
  8
SAKUZU1
 62
     7
  2
*U8
 10
0.0
 20
0.0
 30
0.0
  0
LINE
  8
SAKUZU2
 62
     7
 10
60.650933516338
 20
182.247283704432
 11
58.507950710029
 21
179.558905308374
  0
LINE
  8
SAKUZU2
 62
     7
 10
140.169684933071
 20
172.828779647938
 11
138.363254952657
 21
170.53605026959
  0
LINE
  8
SAKUZU2
 62
     7
 10
137.259950303693
 20
122.880108578508
 11
135.098958441863
 21
120.145148109421
  0
LINE
  8
SAKUZU2
 62
     7
 10
116.532203536839
 20
138.6512234721
 11
114.37121167501
 21
135.916263003014
  0
LINE
  8
SAKUZU2
 62
     7
 10
87.204851626054
 20
138.384461769719
 11
85.043859764225
 21
135.649501300633
  0
LINE
  8
SAKUZU2
 62
     7
 10
60.80282502166
 20
122.965594400798
 11
58.641833159831
 21
120.230633931712
  0
LINE
  8
HASEN
 62
     7
 10
105.326068531327
 20
194.660282823049
 11
99.160299130042
 21
180.80284306065
  0
LINE
  8
HASEN
 62
     7
 10
107.514176319902
 20
194.660282823049
 11
114.986377123974
 21
177.866665385234
  0
LINE
  8
SAKUZU1
 62
     7
 10
87.248495351962
 20
62.804650802997
 11
87.248495351962
 21
62.408067090993
  0
LINE
  8
SAKUZU1
 62
     7
 10
132.357941607122
 20
57.583747332519
 11
132.357941607122
 21
57.187163620515
  0
TEXT
  8
SUNPOUSEN
 62
     7
 10
131.353396452807
 20
87.08732221934
 40
3.85
  1
（不可視光線）
 41
0.9
  0
LINE
  8
HASEN
 62
     7
 10
120.967024912811
 20
67.237680090352
 11
138.917790550315
 21
55.821414393911
  0
LINE
  8
HASEN
 62
     7
 10
103.548061698565
 20
48.743173083998
 11
138.917790550315
 21
55.821414393911
  0
LINE
  8
HASEN
 62
     7
 10
81.422497690595
 20
62.408067090993
 11
103.548061698565
 21
48.743173083998
  0
LINE
  8
HASEN
 62
     7
 10
81.422497690595
 20
62.408067090993
 11
120.967024912811
 21
67.237680090352
  0
LINE
  8
HASEN
 62
     7
 10
103.072364085809
 20
161.567757814173
 11
87.902303438848
 21
92.086565896191
  0
LINE
  8
HASEN
 62
     7
 10
103.072364085809
 20
161.567757814173
 11
114.946628043738
 21
98.973654863957
  0
LINE
  8
HASEN
 62
     7
 10
103.072364085809
 20
161.567757814173
 11
103.548061698565
 21
48.743173083998
  0
LINE
  8
HASEN
 62
     7
 10
103.072364085809
 20
161.567757814173
 11
114.857937908354
 21
126.799547200811
  0
LINE
  8
SAKUZU1
 62
     7
 10
170.326370568435
 20
145.591333063237
 11
170.326370568435
 21
173.21865484209
  0
LINE
  8
HASEN
 62
     7
 10
124.308544180856
 20
98.919642984544
 11
138.917790550315
 21
55.821414393911
  0
LINE
  8
HASEN
 62
     7
 10
114.956874237593
 20
98.919642984544
 11
120.967024912811
 21
67.237680090352
  0
LINE
  8
HASEN
 62
     7
 10
118.373780649329
 20
116.281424311764
 11
122.733696129945
 21
103.529012671528
  0
LINE
  8
SAKUZU1
 62
     7
 10
151.428119647434
 20
84.95476964083
 11
151.426747329329
 21
70.781091844843
  0
LINE
  8
SAKUZU1
 62
     7
 10
150.209053875885
 20
84.95476964083
 11
150.207791367743
 21
70.65618704557
  0
LINE
  8
SAKUZU2
 62
     7
 10
149.812485243831
 20
84.95476964083
 11
149.812485243831
 21
72.784709157621
  0
LINE
  8
SAKUZU2
 62
     7
 10
149.663470488613
 20
84.95476964083
 11
149.663470488613
 21
72.849882001599
  0
LINE
  8
SAKUZU1
 62
     7
 10
149.402788174127
 20
99.067256049097
 11
149.402788174127
 21
131.444801657023
  0
LINE
  8
SUNPOUSEN
 62
     7
 10
119.550783416484
 20
52.361547067104
 11
128.078109157244
 21
37.850856395418
  0
SOLID
  8
SUNPOUSEN
 62
     7
 10
119.215500739815
 20
52.027511205963
 11
120.000492213966
 21
52.500867481181
 12
118.187927651238
 22
54.619163766026
 13
118.187927651238
 23
54.619163766026
  0
LINE
  8
図面枠
 62
     7
 10
26.079566094904
 20
257.5339834024
 11
26.079566094904
 21
-4.288998569881
  0
TEXT
  8
MOJI
 62
     7
 10
221.441760699828
 20
223.047614042778
 40
5.0
  1
（不可視）
 41
0.8
  0
TEXT
  8
SUNPOUSEN
 62
     7
 10
388.54175475025
 20
258.513019722263
 40
1.5
  1
22
  0
INSERT
  8
図面枠
 62
     7
  2
*U9
 10
0.0
 20
0.0
 30
0.0
  0
INSERT
  8
図面枠
 62
     7
  2
*U10
 10
0.0
 20
0.0
 30
0.0
  0
INSERT
  8
図面枠
 62
     7
  2
*U11
 10
0.0
 20
0.0
 30
0.0
  0
INSERT
  8
図面枠
 62
     7
  2
*U12
 10
0.0
 20
0.0
 30
0.0
  0
INSERT
  8
図面枠
 62
     7
  2
*U13
 10
0.0
 20
0.0
 30
0.0
  0
INSERT
  8
図面枠
 62
     7
  2
*U14
 10
0.0
 20
0.0
 30
0.0
  0
INSERT
  8
図面枠
 62
     7
  2
*U15
 10
0.0
 20
0.0
 30
0.0
  0
INSERT
  8
図面枠
 62
     7
  2
*U16
 10
0.0
 20
0.0
 30
0.0
  0
INSERT
  8
図面枠
 62
     7
  2
*U17
 10
0.0
 20
0.0
 30
0.0
  0
INSERT
  8
図面枠
 62
     7
  2
*U18
 10
0.0
 20
0.0
 30
0.0
  0
INSERT
  8
図面枠
 62
     7
  2
*U19
 10
0.0
 20
0.0
 30
0.0
  0
INSERT
  8
図面枠
 62
     7
  2
*U20
 10
0.0
 20
0.0
 30
0.0
  0
INSERT
  8
図面枠
 62
     7
  2
*U21
 10
0.0
 20
0.0
 30
0.0
  0
INSERT
  8
図面枠
 62
     7
  2
*U22
 10
0.0
 20
0.0
 30
0.0
  0
INSERT
  8
図面枠
 62
     7
  2
*U23
 10
0.0
 20
0.0
 30
0.0
  0
INSERT
  8
図面枠
 62
     7
  2
*U24
 10
0.0
 20
0.0
 30
0.0
  0
INSERT
  8
図面枠
 62
     7
  2
*U25
 10
0.0
 20
0.0
 30
0.0
  0
INSERT
  8
図面枠
 62
     7
  2
*U26
 10
0.0
 20
0.0
 30
0.0
  0
INSERT
  8
図面枠
 62
     7
  2
*U27
 10
0.0
 20
0.0
 30
0.0
  0
INSERT
  8
図面枠
 62
     7
  2
*U28
 10
0.0
 20
0.0
 30
0.0
  0
INSERT
  8
図面枠
 62
     7
  2
*U29
 10
0.0
 20
0.0
 30
0.0
  0
INSERT
  8
図面枠
 62
     7
  2
*U30
 10
0.0
 20
0.0
 30
0.0
  0
INSERT
  8
図面枠
 62
     7
  2
*U31
 10
0.0
 20
0.0
 30
0.0
  0
INSERT
  8
図面枠
 62
     7
  2
*U32
 10
0.0
 20
0.0
 30
0.0
  0
INSERT
  8
図面枠
 62
     7
  2
*U33
 10
0.0
 20
0.0
 30
0.0
  0
INSERT
  8
図面枠
 62
     7
  2
*U34
 10
0.0
 20
0.0
 30
0.0
  0
INSERT
  8
図面枠
 62
     7
  2
*U35
 10
0.0
 20
0.0
 30
0.0
  0
INSERT
  8
図面枠
 62
     7
  2
*U36
 10
0.0
 20
0.0
 30
0.0
  0
INSERT
  8
図面枠
 62
     7
  2
*U37
 10
0.0
 20
0.0
 30
0.0
  0
INSERT
  8
図面枠
 62
     7
  2
*U38
 10
0.0
 20
0.0
 30
0.0
  0
INSERT
  8
図面枠
 62
     7
  2
*U39
 10
0.0
 20
0.0
 30
0.0
  0
LINE
  8
SAKUZU1
 62
     7
 10
70.646652922632
 20
103.328333625563
 11
73.187077289391
 21
103.451439986016
  0
LINE
  8
SAKUZU1
 62
     7
 10
73.187061521477
 20
103.45143922192
 11
73.19593698657
 21
100.139794676137
  0
LINE
  8
SAKUZU1
 62
     7
 10
70.646989733181
 20
103.321529349293
 11
70.808499006326
 21
100.058704834512
  0
LINE
  8
SAKUZU1
 62
     7
 10
70.807908969509
 20
100.070624810101
 11
73.19593698657
 21
100.139794676137
  0
INSERT
  8
SUNPOUSEN
 62
     7
  2
*X40
 10
0.0
 20
0.0
 30
0.0
  0
TEXT
  8
SUNPOUSEN
  6
CONTINUOUS
 62
     7
 10
41.566545007695
 20
94.759049535425
 40
3.5
  1
戸袋注意シール
  0
LINE
  8
SAKUZU2
 62
     7
 10
49.315443824359
 20
90.798322831628
 11
49.315443824359
 21
60.51199931589
  0
LINE
  8
SAKUZU1
 62
     7
 10
51.32581633988
 20
90.798322831628
 11
51.32581633988
 21
60.524235187525
  0
LINE
  8
SAKUZU1
 62
     7
 10
49.56581633988
 20
90.798322831628
 11
49.56581633988
 21
60.355417406156
  0
LINE
  8
SUNPOUSEN
 62
     7
 10
86.664626508972
 20
119.79994075189
 11
91.57334523998
 21
119.79994075189
  0
LINE
  8
SUNPOUSEN
 62
     7
 10
86.762871832449
 20
121.64794075189
 11
91.465195782377
 21
121.64794075189
  0
LINE
  8
SUNPOUSEN
 62
     7
 10
86.84794459717
 20
121.38394075189
 11
91.379319900326
 21
121.38394075189
  0
LINE
  8
SUNPOUSEN
 62
     7
 10
86.777769366114
 20
120.06394075189
 11
91.463343195831
 21
120.06394075189
  0
LINE
  8
SUNPOUSEN
 62
     7
 10
89.337675599461
 20
124.801165226809
 11
91.187445214467
 21
122.059598368908
  0
ARC
  8
SUNPOUSEN
 62
     7
 10
90.968599999448
 20
121.91194075189
 40
0.264
 50
270.0
 51
34.008034687945
  0
LINE
  8
SUNPOUSEN
 62
     7
 10
89.551372186262
 20
122.964944736646
 11
90.246211966976
 21
122.964944736646
  0
LINE
  8
SUNPOUSEN
 62
     7
 10
87.37594459717
 20
120.734175617729
 11
90.851319900326
 21
120.734175617729
  0
LINE
  8
SUNPOUSEN
 62
     7
 10
87.90394459717
 20
121.837652799809
 11
90.323319900326
 21
121.837652799809
  0
LINE
  8
SUNPOUSEN
 62
     7
 10
89.551372186262
 20
122.448423502481
 11
89.982211966976
 21
122.448423502481
  0
ARC
  8
SUNPOUSEN
 62
     7
 10
87.260720618466
 20
121.91194075189
 40
0.264
 50
145.872359796687
 51
270.0
  0
LINE
  8
SUNPOUSEN
 62
     7
 10
88.900293882789
 20
124.801621746339
 11
87.042184116813
 21
122.060054888438
  0
LINE
  8
SUNPOUSEN
 62
     7
 10
86.762871832449
 20
121.64794075189
 11
86.136626508972
 21
120.72394075189
  0
ARC
  8
SUNPOUSEN
 62
     7
 10
89.118830384442
 20
124.653507609791
 40
0.264
 50
34.008034687933
 51
145.87235979668
  0
LINE
  8
SUNPOUSEN
 62
     7
 10
86.84794459717
 20
121.38394075189
 11
86.389919257516
 21
120.70509562378
  0
LINE
  8
SUNPOUSEN
 62
     7
 10
86.389919257516
 20
120.70509562378
 11
86.763921301665
 21
120.06394075189
  0
LINE
  8
SUNPOUSEN
 62
     7
 10
86.125919257516
 20
120.70509562378
 11
86.653919257516
 21
119.79994075189
  0
LINE
  8
SUNPOUSEN
 62
     7
 10
88.043923170478
 20
122.964944736646
 11
88.738762951191
 21
122.964944736646
  0
LINE
  8
SUNPOUSEN
 62
     7
 10
88.307923170478
 20
122.448423502481
 11
88.738762951191
 21
122.448423502481
  0
TEXT
  8
SUNPOUSEN
 62
     7
 10
88.420785424424
 20
122.202059850736
 40
2.112
  1
!
  7
ＭＳゴシック
  0
LINE
  8
SUNPOUSEN
 62
     7
 10
92.10134523998
 20
120.70509562378
 11
91.57334523998
 21
119.79994075189
  0
LINE
  8
SUNPOUSEN
 62
     7
 10
91.465195782377
 20
121.64794075189
 11
92.10134523998
 21
120.70509562378
  0
LINE
  8
SUNPOUSEN
 62
     7
 10
91.379319900326
 20
121.38394075189
 11
91.83734523998
 21
120.70509562378
  0
LINE
  8
SUNPOUSEN
 62
     7
 10
91.83734523998
 20
120.70509562378
 11
91.463343195831
 21
120.06394075189
  0
LINE
  8
SUNPOUSEN
 62
     7
 10
115.206749993561
 20
122.514423502481
 11
115.637589774274
 21
122.514423502481
  0
LINE
  8
SUNPOUSEN
 62
     7
 10
114.942749993561
 20
123.030944736646
 11
115.637589774274
 21
123.030944736646
  0
LINE
  8
SUNPOUSEN
 62
     7
 10
115.799120705872
 20
124.867621746339
 11
113.941010939896
 21
122.126054888438
  0
LINE
  8
SUNPOUSEN
 62
     7
 10
114.802771420253
 20
121.903652799809
 11
117.222146723409
 21
121.903652799809
  0
LINE
  8
SUNPOUSEN
 62
     7
 10
114.274771420253
 20
120.800175617729
 11
117.750146723409
 21
120.800175617729
  0
LINE
  8
SUNPOUSEN
 62
     7
 10
113.676596189198
 20
120.12994075189
 11
118.362170018914
 21
120.12994075189
  0
LINE
  8
SUNPOUSEN
 62
     7
 10
113.746771420253
 20
121.44994075189
 11
118.278146723409
 21
121.44994075189
  0
LINE
  8
SUNPOUSEN
 62
     7
 10
113.661698655532
 20
121.71394075189
 11
118.36402260546
 21
121.71394075189
  0
LINE
  8
SUNPOUSEN
 62
     7
 10
113.563453332055
 20
119.86594075189
 11
118.472172063063
 21
119.86594075189
  0
LINE
  8
SUNPOUSEN
 62
     7
 10
113.024746080599
 20
120.77109562378
 11
113.552746080599
 21
119.86594075189
  0
LINE
  8
SUNPOUSEN
 62
     7
 10
113.288746080599
 20
120.77109562378
 11
113.662748124748
 21
120.12994075189
  0
LINE
  8
SUNPOUSEN
 62
     7
 10
113.746771420253
 20
121.44994075189
 11
113.288746080599
 21
120.77109562378
  0
LINE
  8
SUNPOUSEN
 62
     7
 10
113.661698655532
 20
121.71394075189
 11
113.035453332055
 21
120.78994075189
  0
ARC
  8
SUNPOUSEN
 62
     7
 10
114.159547441549
 20
121.97794075189
 40
0.264
 50
145.872359796687
 51
270.0
  0
TEXT
  8
SUNPOUSEN
 62
     7
 10
115.319612247507
 20
122.268059850736
 40
2.112
  1
!
  7
ＭＳゴシック
  0
LINE
  8
SUNPOUSEN
 62
     7
 10
116.236502422544
 20
124.867165226809
 11
118.08627203755
 21
122.125598368908
  0
LINE
  8
SUNPOUSEN
 62
     7
 10
118.736172063063
 20
120.77109562378
 11
118.362170018914
 21
120.12994075189
  0
LINE
  8
SUNPOUSEN
 62
     7
 10
118.278146723409
 20
121.44994075189
 11
118.736172063063
 21
120.77109562378
  0
LINE
  8
SUNPOUSEN
 62
     7
 10
118.36402260546
 20
121.71394075189
 11
119.000172063063
 21
120.77109562378
  0
LINE
  8
SUNPOUSEN
 62
     7
 10
119.000172063063
 20
120.77109562378
 11
118.472172063063
 21
119.86594075189
  0
LINE
  8
SUNPOUSEN
 62
     7
 10
116.450199009346
 20
122.514423502481
 11
116.881038790059
 21
122.514423502481
  0
LINE
  8
SUNPOUSEN
 62
     7
 10
116.450199009346
 20
123.030944736646
 11
117.145038790059
 21
123.030944736646
  0
ARC
  8
SUNPOUSEN
 62
     7
 10
117.867426822531
 20
121.97794075189
 40
0.264
 50
270.0
 51
34.008034687946
  0
ARC
  8
SUNPOUSEN
 62
     7
 10
116.017657207525
 20
124.719507609791
 40
0.264
 50
34.008034687931
 51
145.87235979668
  0
CIRCLE
  8
SUNPOUSEN
 62
     7
 10
71.959378457889
 20
101.869575040574
 40
0.9625000000000001
  0
LINE
  8
SUNPOUSEN
 62
     7
 10
71.201960938824
 20
102.463481558313
 11
72.652256261666
 21
101.201498249304
  0
LINE
  8
SAKUZU1
 62
     7
 10
131.930823119751
 20
104.411381660054
 11
132.092332392897
 21
101.148557145273
  0
LINE
  8
SAKUZU1
 62
     7
 10
131.930486309203
 20
104.418185936324
 11
134.470908120168
 21
104.542196736501
  0
LINE
  8
SAKUZU1
 62
     7
 10
134.470908120168
 20
104.542196736501
 11
134.47977037314
 21
101.220937439751
  0
CIRCLE
  8
SUNPOUSEN
 62
     7
 10
133.243211844459
 20
102.959427351336
 40
0.9625000000000001
  0
LINE
  8
SUNPOUSEN
 62
     7
 10
132.485794325394
 20
103.553333869075
 11
133.936089648236
 21
102.291350560065
  0
LINE
  8
SAKUZU1
 62
     7
 10
132.091742356079
 20
101.160477120863
 11
134.47977037314
 21
101.220937439751
  0
INSERT
  8
SUNPOUSEN
 62
     7
  2
*X41
 10
0.0
 20
0.0
 30
0.0
  0
INSERT
  8
HATCH
 62
     7
  2
*U42
 10
0.0
 20
0.0
 30
0.0
  0
INSERT
  8
HATCH
 62
     7
  2
*U43
 10
0.0
 20
0.0
 30
0.0
  0
INSERT
  8
HATCH
 62
     7
  2
*U44
 10
0.0
 20
0.0
 30
0.0
  0
LINE
  8
SAKUZU1
 62
     7
 10
76.076763245124
 20
77.963398250762
 11
76.076763245124
 21
62.851624645006
  0
LINE
  8
SAKUZU1
 62
     7
 10
77.73681633988
 20
77.963398250762
 11
77.73681633988
 21
63.030566341543
  0
LINE
  8
SAKUZU2
 62
     7
 10
75.551856095295
 20
77.963398250762
 11
75.551856095295
 21
66.887602526675
  0
LINE
  8
SAKUZU2
 62
     7
 10
75.291374868751
 20
77.963398250762
 11
75.291374868751
 21
67.034977100458
  0
LINE
  8
SAKUZU1
 62
     7
 10
75.020817050518
 20
92.122391910691
 11
75.020817050517
 21
160.970334864864
  0
LINE
  8
SAKUZU1
 62
     7
 10
51.32581633988
 20
105.255556604389
 11
51.32581633988
 21
101.011301893688
  0
LINE
  8
SAKUZU1
 62
     7
 10
49.56581633988
 20
105.255556604389
 11
49.56581633988
 21
101.011301893688
  0
LINE
  8
SAKUZU2
 62
     7
 10
49.315443824359
 20
105.255556604389
 11
49.315443824359
 21
101.011301893688
  0
SOLID
  8
SUNPOUSEN
 62
     7
 10
118.374874706192
 20
126.671033993826
 11
119.181202863095
 21
126.235014864471
 12
117.469981396578
 22
124.034039958441
 13
117.469981396578
 23
124.034039958441
  0
LINE
  8
SUNPOUSEN
 62
     7
 10
117.469981396578
 20
124.034039958441
 11
122.969981396578
 21
133.56031940007
  0
LINE
  8
SUNPOUSEN
 62
     7
 10
122.969981396578
 20
133.56031940007
 11
157.552296109297
 21
133.56031940007
  0
LINE
  8
SAKUZU2
 62
     7
 10
149.812485243831
 20
131.444801657023
 11
149.812485243831
 21
99.067256049097
  0
LINE
  8
SAKUZU2
 62
     7
 10
149.663470488613
 20
131.444801657023
 11
149.663470488613
 21
99.067256049097
  0
LINE
  8
SAKUZU1
 62
     7
 10
151.432620886531
 20
131.444801651867
 11
151.429486040892
 21
99.067256049097
  0
LINE
  8
SAKUZU1
 62
     7
 10
150.213158761355
 20
131.444801652735
 11
150.210299952472
 21
99.067256049097
  0
LINE
  8
SAKUZU1
 62
     7
 10
149.402788174127
 20
140.076974075937
 11
149.402788174127
 21
156.197649088026
  0
LINE
  8
SAKUZU1
 62
     7
 10
128.218357603182
 20
130.344801657023
 11
128.218357603182
 21
69.180802815185
  0
LINE
  8
SAKUZU1
 62
     7
 10
130.720284661062
 20
130.344801657023
 11
130.721376231538
 21
68.722340602187
  0
LINE
  8
SAKUZU2
 62
     7
 10
127.240820985279
 20
130.344801657023
 11
127.229128841511
 21
72.369530492341
  0
LINE
  8
SAKUZU1
 62
     7
 10
129.390616753592
 20
130.344801657023
 11
129.390616753592
 21
68.59847179457
  0
LINE
  8
SAKUZU2
 62
     7
 10
127.865493560339
 20
130.344801657023
 11
127.853824510043
 21
72.106354635626
  0
LINE
  8
SAKUZU2
 62
     7
 10
127.560700471629
 20
130.344801657023
 11
127.549020184086
 21
72.227984588049
  0
LINE
  8
HASEN
 62
     7
 10
84.820939209096
 20
77.973447669505
 11
81.422497690595
 21
62.408067090993
  0
LINE
  8
SAKUZU2
 62
     7
 10
61.08292111898
 20
127.026361913646
 11
54.830163045506
 21
119.112844766368
  0
LINE
  8
SAKUZU2
 62
     7
 10
137.005234283114
 20
125.930634394281
 11
132.116398280188
 21
119.743302806401
  0
LINE
  8
SAKUZU1
 62
     7
 10
123.135417280148
 20
104.411381660054
 11
123.296926553294
 21
101.148557145273
  0
LINE
  8
SAKUZU1
 62
     7
 10
123.1350804696
 20
104.418185936324
 11
125.675502280565
 21
104.542196736501
  0
LINE
  8
SAKUZU1
 62
     7
 10
125.675502280565
 20
104.542196736501
 11
125.684364533537
 21
101.220937439751
  0
CIRCLE
  8
SUNPOUSEN
 62
     7
 10
124.447806004856
 20
102.959427351336
 40
0.9625000000000001
  0
LINE
  8
SUNPOUSEN
 62
     7
 10
123.690388485791
 20
103.553333869075
 11
125.140683808633
 21
102.291350560065
  0
LINE
  8
SAKUZU1
 62
     7
 10
123.296336516476
 20
101.160477120863
 11
125.684364533537
 21
101.220937439751
  0
LINE
  8
SAKUZU1
 62
     7
 10
79.331060866836
 20
103.630099965052
 11
79.492570139981
 21
100.367275450271
  0
LINE
  8
SAKUZU1
 62
     7
 10
79.330724056287
 20
103.636904241322
 11
81.871145867252
 21
103.760915041499
  0
LINE
  8
SAKUZU1
 62
     7
 10
81.871145867252
 20
103.760915041499
 11
81.880008120225
 21
100.439655744749
  0
CIRCLE
  8
SUNPOUSEN
 62
     7
 10
80.643449591544
 20
102.178145656333
 40
0.9625000000000001
  0
LINE
  8
SUNPOUSEN
 62
     7
 10
79.886032072479
 20
102.772052174072
 11
81.33632739532
 21
101.510068865063
  0
LINE
  8
SAKUZU1
 62
     7
 10
79.491980103163
 20
100.379195425861
 11
81.880008120225
 21
100.439655744749
  0
LINE
  8
HASEN
 62
     7
 10
123.913362943187
 20
100.078579545549
 11
124.186748311825
 21
99.278948733257
  0
TEXT
  8
MOJI
 62
     7
 10
377.7307
 20
220.205514396141
 40
3.0
  1
ビ　ル
 41
1.08
  0
TEXT
  8
MOJI
 62
     7
 10
377.7307
 20
213.628333229562
 40
3.0
  1
工　場
 41
1.1
  0
TEXT
  8
MOJI
 62
     7
 10
377.730657301659
 20
225.642666164896
 40
3.0
  1
一般店舗
 41
0.8
  0
TEXT
  8
MOJI
 62
     7
 10
377.7307
 20
167.849777166927
 40
3.0
  1
ビ　ル
 41
1.08
  0
TEXT
  8
MOJI
 62
     7
 10
377.7307
 20
140.618609040666
 40
3.0
  1
工　場
 41
1.08
  0
TEXT
  8
MOJI
 62
     7
 10
377.7307
 20
130.479767502478
 40
3.0
  1
工　場
 41
1.08
  0
INSERT
  8
SUNPOUSEN
 62
     7
  2
*X45
 10
0.0
 20
0.0
 30
0.0
  0
LINE
  8
PT
 10
21.079566094904
 20
-9.288998569881
 11
408.079566094904
 21
-9.288998569881
  0
LINE
  8
PT
 10
408.079566094904
 20
274.806992713021
 11
21.079566094904
 21
274.806992713021
  0
LINE
  8
PT
 10
21.079566094904
 20
274.806992713021
 11
21.079566094904
 21
-9.288998569881
  0
POLYLINE
  8
PT
  6
CONTINUOUS
 66
     1
 70
     1
  0
VERTEX
  8
PT
  6
CONTINUOUS
 10
26.079566094904
 20
-4.288998569881
  0
VERTEX
  8
PT
  6
CONTINUOUS
 10
21.079566094904
 20
-4.288998569881
  0
VERTEX
  8
PT
  6
CONTINUOUS
 10
21.079566094904
 20
-9.288998569881
  0
VERTEX
  8
PT
  6
CONTINUOUS
 10
26.079566094904
 20
-9.288998569881
  0
SEQEND
  8
PT
  6
CONTINUOUS
  0
POLYLINE
  8
PT
  6
CONTINUOUS
 66
     1
 70
     1
  0
VERTEX
  8
PT
  6
CONTINUOUS
 10
21.079566094904
 20
262.5339834024
  0
VERTEX
  8
PT
  6
CONTINUOUS
 10
26.079566094904
 20
262.5339834024
  0
VERTEX
  8
PT
  6
CONTINUOUS
 10
26.079566094904
 20
257.5339834024
  0
VERTEX
  8
PT
  6
CONTINUOUS
 10
21.079566094904
 20
257.5339834024
  0
SEQEND
  8
PT
  6
CONTINUOUS
  0
LINE
  8
PT
 10
408.079566094904
 20
-9.288998569881
 11
408.079566094904
 21
274.806992713021
  0
TEXT
  8
SAKUZU1
 62
     7
 10
389.725587979002
 20
-8.638160994519
 40
3.0
  1
4
 41
0.7
  7
ＭＳゴシック
  0
LINE
  8
図面枠
 62
     7
 10
216.079566094904
 20
42.260075566307
 11
391.079566094904
 21
42.260075566307
  0
LINE
  8
MOJI
 62
     7
 10
251.079566094904
 20
73.038991868178
 11
391.079566094904
 21
73.038991868178
  0
INSERT
  8
MOJI
 62
     7
  2
*X46
 10
0.0
 20
0.0
 30
0.0
  0
TEXT
  8
MOJI
 62
     7
 10
254.4692
 20
77.232119833246
 40
5.0
  1
指紋静脈照合スイッチ
 41
0.58
  0
TEXT
  8
MOJI
 62
     7
 10
254.4692
 20
55.076861989867
 40
5.0
  1
虹彩認証スイッチ
 41
0.74
  0
INSERT
  8
MOJI
 62
     7
  2
*X47
 10
0.0
 20
0.0
 30
0.0
  0
TEXT
  8
MOJI
 62
     7
 10
366.340339312154
 20
77.885354935773
 40
3.5
  1
壁
  0
TEXT
  8
MOJI
 62
     7
 10
366.340339312154
 20
55.580992777854
 40
3.5
  1
壁
  0
TEXT
  8
MOJI
 62
     7
 10
377.7307
 20
66.298330579607
 40
3.0
  1
貸金庫室
 41
0.8
  0
TEXT
  8
MOJI
 62
     7
 10
377.7307
 20
59.287394031709
 40
3.0
  1
研究室
 41
1.08
  0
TEXT
  8
MOJI
 62
     7
 10
377.7307
 20
52.09341396549
 40
3.0
  1
電算室
 41
1.08
  0
TEXT
  8
MOJI
 62
     7
 10
382.538247529915
 20
56.479022698013
 40
0.7
  1
●
  0
TEXT
  8
MOJI
 62
     7
 10
382.538247529915
 20
63.942176709316
 40
0.7
  1
●
  0
TEXT
  8
MOJI
 62
     7
 10
377.7307
 20
82.377120902413
 40
3.0
  1
貸金庫室
 41
0.8
  0
TEXT
  8
MOJI
 62
     7
 10
377.7307
 20
77.770882352921
 40
3.0
  1
研究室
 41
1.08
  0
TEXT
  8
MOJI
 62
     7
 10
377.7307
 20
73.675071920602
 40
3.0
  1
電算室
 41
1.08
  0
TEXT
  8
MOJI
 62
     7
 10
382.538247529915
 20
76.831699562795
 40
0.7
  1
●
  0
TEXT
  8
MOJI
 62
     7
 10
382.538247529915
 20
81.232193395034
 40
0.7
  1
●
  0
TEXT
  8
MOJI
 62
     7
 10
377.7307
 20
152.202563690461
 40
3.0
  1
工　場
 41
1.08
  0
TEXT
  8
MOJI
 62
     7
 10
377.7307
 20
159.59618968838
 40
3.0
  1
トイレ
 41
1.08
  0
TEXT
  8
MOJI
 62
     7
 10
382.538247529915
 20
156.789258575916
 40
0.7
  1
●
  0
TEXT
  8
MOJI
 62
     7
 10
377.974919790731
 20
46.135489648488
 40
3.0
  1
工　場
 41
1.08
  0
TEXT
  8
MOJI
 62
     7
 10
382.538247529915
 20
49.555975748903
 40
0.7
  1
●
  0
TEXT
  8
MOJI
 62
     7
 10
382.538247529915
 20
241.687931763311
 40
0.7
  1
●
  0
TEXT
  8
MOJI
 62
     7
 10
382.538247529915
 20
234.839520117782
 40
0.7
  1
●
  0
TEXT
  8
MOJI
 62
     7
 10
382.538247529915
 20
223.513300857867
 40
0.7
  1
●
  0
TEXT
  8
MOJI
 62
     7
 10
382.538247529915
 20
217.718491003958
 40
0.7
  1
●
  0
TEXT
  8
MOJI
 62
     7
 10
367.651390874679
 20
217.719270281136
 40
0.7
  1
●
  0
LINE
  8
SAKUZU1
 62
     7
 10
99.077787077454
 20
117.082125360351
 11
98.398291522665
 21
117.638378149678
  0
ARC
  8
SAKUZU1
 62
     7
 10
98.04989749256
 20
117.212794315648
 40
0.55
 50
50.695348712957
 51
86.706199097373
  0
ARC
  8
SAKUZU1
 62
     7
 10
97.120354575624
 20
117.295472671277
 40
0.55
 50
90.0
 51
180.0
  0
LINE
  8
SAKUZU1
 62
     7
 10
97.572967900629
 20
106.552101702631
 11
96.813864149222
 21
106.741423382559
  0
ARC
  8
SAKUZU1
 62
     7
 10
97.120354575624
 20
107.19811104226
 40
0.55
 50
180.0
 51
236.133803402588
  0
LINE
  8
SAKUZU1
 62
     7
 10
97.274180689452
 20
117.091800216874
 11
96.687698710336
 21
117.620533692811
  0
LINE
  8
SAKUZU1
 62
     7
 10
97.120354575624
 20
117.845472671277
 11
98.081498298813
 21
117.761885737038
  0
LINE
  8
SAKUZU1
 62
     7
 10
97.572967900629
 20
106.552101702631
 11
98.249678747808
 21
106.724007527181
  0
ARC
  8
SAKUZU1
 62
     7
 10
98.087626743005
 20
107.698328410255
 40
0.9877054396201524
 50
279.443164534774
 51
329.477912171803
  0
LINE
  8
SAKUZU1
 62
     7
 10
97.35654131429
 20
107.074601702631
 11
96.813864149222
 21
106.741423382559
  0
LINE
  8
SAKUZU1
 62
     7
 10
96.570354575624
 20
107.19811104226
 11
96.570354575624
 21
117.295472671277
  0
LINE
  8
SAKUZU1
 62
     7
 10
97.203504607459
 20
107.444064995801
 11
97.203504607459
 21
116.835767923213
  0
ARC
  8
SAKUZU1
 62
     7
 10
97.726004607459
 20
107.444064995801
 40
0.5225
 50
180.0
 51
270.0
  0
LINE
  8
SAKUZU1
 62
     7
 10
97.725529682057
 20
117.358251664698
 11
98.69434139799
 21
117.269708873271
  0
LINE
  8
SAKUZU1
 62
     7
 10
97.726004607459
 20
106.921564995801
 11
98.69434139799
 21
107.136162840718
  0
ARC
  8
SAKUZU1
 62
     7
 10
97.726004607459
 20
116.835767923213
 40
0.5225
 50
90.0
 51
180.0
  0
LINE
  8
SAKUZU1
 62
     7
 10
99.21684139799
 20
116.747208873272
 11
99.21684139799
 21
107.658662840718
  0
ARC
  8
SAKUZU1
 62
     7
 10
98.69434139799
 20
107.658662840718
 40
0.5225
 50
270.0
 51
0.0
  0
ARC
  8
SAKUZU1
 62
     7
 10
98.69434139799
 20
116.747208873272
 40
0.5225
 50
0.0
 51
90.0
  0
TEXT
  8
MOZI
  6
CONTINUOUS
 62
     7
 10
97.466713061342
 20
112.773773894254
 40
0.379980315
  1
PUSH
  7
MSGOTHIC2
 72
     4
 11
98.157137293697
 21
112.964903992699
  0
TEXT
  8
MOJI
 62
     7
 10
97.690506746611
 20
116.404346519261
 40
0.935
  1
自動
 50
270.0
  7
_丸ゴシック
 72
     1
 11
98.158006746611
 21
115.153936108851
  0
TEXT
  8
MOJI
 62
     7
 10
97.887266596542
 20
111.658288919541
 40
0.55
  1
押して下さい
 50
270.0
  7
_丸ゴシック
 72
     1
 11
98.162266596542
 21
109.649054685307
  0
POLYLINE
  8
MOJI
 62
     7
 66
     1
 70
     1
 40
0.087687765
 41
0.087687765
  0
VERTEX
  8
MOJI
 62
     7
 10
98.146802815208
 20
116.876635112969
 42
1.0
  0
VERTEX
  8
MOJI
 62
     7
 10
98.234490580208
 20
116.876635112969
 42
1.0
  0
SEQEND
  8
MOJI
 62
     7
  0
LINE
  8
SAKUZU1
 62
     7
 10
108.594997651764
 20
117.082125360351
 11
107.915502096976
 21
117.638378149678
  0
ARC
  8
SAKUZU1
 62
     7
 10
107.56710806687
 20
117.212794315648
 40
0.55
 50
50.695348712959
 51
86.706199097373
  0
ARC
  8
SAKUZU1
 62
     7
 10
106.637565149935
 20
117.295472671277
 40
0.55
 50
90.0
 51
180.0
  0
LINE
  8
SAKUZU1
 62
     7
 10
107.09017847494
 20
106.552101702631
 11
106.331074723533
 21
106.741423382559
  0
ARC
  8
SAKUZU1
 62
     7
 10
106.637565149935
 20
107.19811104226
 40
0.55
 50
180.0
 51
236.133803402588
  0
LINE
  8
SAKUZU1
 62
     7
 10
106.791391263763
 20
117.091800216874
 11
106.204909284647
 21
117.620533692811
  0
LINE
  8
SAKUZU1
 62
     7
 10
106.637565149935
 20
117.845472671277
 11
107.598708873124
 21
117.761885737038
  0
LINE
  8
SAKUZU1
 62
     7
 10
107.09017847494
 20
106.552101702631
 11
107.766889322119
 21
106.724007527181
  0
ARC
  8
SAKUZU1
 62
     7
 10
107.604837317315
 20
107.698328410255
 40
0.9877054396201524
 50
279.443164534774
 51
329.477912171802
  0
LINE
  8
SAKUZU1
 62
     7
 10
106.8737518886
 20
107.074601702631
 11
106.331074723533
 21
106.741423382559
  0
LINE
  8
SAKUZU1
 62
     7
 10
106.087565149935
 20
107.19811104226
 11
106.087565149935
 21
117.295472671277
  0
LINE
  8
SAKUZU1
 62
     7
 10
106.72071518177
 20
107.444064995801
 11
106.72071518177
 21
116.835767923213
  0
ARC
  8
SAKUZU1
 62
     7
 10
107.24321518177
 20
107.444064995801
 40
0.5225
 50
180.0
 51
270.0
  0
LINE
  8
SAKUZU1
 62
     7
 10
107.242740256367
 20
117.358251664698
 11
108.211551972301
 21
117.269708873271
  0
LINE
  8
SAKUZU1
 62
     7
 10
107.24321518177
 20
106.921564995801
 11
108.211551972301
 21
107.136162840718
  0
ARC
  8
SAKUZU1
 62
     7
 10
107.24321518177
 20
116.835767923213
 40
0.5225
 50
90.0
 51
180.0
  0
LINE
  8
SAKUZU1
 62
     7
 10
108.734051972301
 20
116.747208873272
 11
108.734051972301
 21
107.658662840718
  0
ARC
  8
SAKUZU1
 62
     7
 10
108.211551972301
 20
107.658662840718
 40
0.5225
 50
270.0
 51
0.0
  0
ARC
  8
SAKUZU1
 62
     7
 10
108.211551972301
 20
116.747208873272
 40
0.5225
 50
0.0
 51
90.0
  0
TEXT
  8
MOZI
  6
CONTINUOUS
 62
     7
 10
106.983923635653
 20
112.773773894254
 40
0.379980315
  1
PUSH
  7
MSGOTHIC2
 72
     4
 11
107.674347868008
 21
112.964903992699
  0
TEXT
  8
MOJI
 62
     7
 10
107.207717320921
 20
116.404346519261
 40
0.935
  1
自動
 50
270.0
  7
_丸ゴシック
 72
     1
 11
107.675217320921
 21
115.153936108851
  0
TEXT
  8
MOJI
 62
     7
 10
107.404477170853
 20
111.658288919541
 40
0.55
  1
押して下さい
 50
270.0
  7
_丸ゴシック
 72
     1
 11
107.679477170853
 21
109.649054685307
  0
POLYLINE
  8
MOJI
 62
     7
 66
     1
 70
     1
 40
0.087687765
 41
0.087687765
  0
VERTEX
  8
MOJI
 62
     7
 10
107.664013389519
 20
116.876635112969
 42
1.0
  0
VERTEX
  8
MOJI
 62
     7
 10
107.751701154519
 20
116.876635112969
 42
1.0
  0
SEQEND
  8
MOJI
 62
     7
  0
LINE
  8
図面枠
 62
     7
 10
26.079566094904
 20
-4.288998569881
 11
391.079566094904
 21
-4.288998569881
  0
TEXT
  8
MOJI
  6
CONTINUOUS
 62
     7
 10
218.808461959186
 20
194.547312453626
 40
4.8
  1
非接触式タイプ
 41
0.8
  0
TEXT
  8
MOJI
 62
     7
 10
376.834238937437
 20
194.730574167093
 40
3.5
  1
食品工場
 41
0.8
  0
TEXT
  8
MOJI
 62
     7
 10
254.4692
 20
194.704283701381
 40
5.0
  1
タッチレススイッチ
 41
0.65
  0
INSERT
  8
0
 62
     7
  2
*X48
 10
0.0
 20
0.0
 30
0.0
  0
LINE
  8
図面枠
 62
     7
 10
216.079566094904
 20
180.707342634563
 11
391.079566094904
 21
180.707342634563
  0
TEXT
  8
MOJI
 62
     7
 10
366.340339312154
 20
194.80516911404
 40
3.5
  1
壁
  0
LINE
  8
SAKUZU1
 62
     7
 10
162.77848346386
 20
125.922627656301
 11
164.914285262835
 21
125.52695849876
  0
LINE
  8
SAKUZU1
 62
     7
 10
165.488075415676
 20
124.853437877605
 11
165.488075415676
 21
119.834689547628
  0
LINE
  8
SAKUZU1
 62
     7
 10
162.77848346386
 20
118.605279455817
 11
162.77848346386
 21
125.922627656301
  0
LINE
  8
SAKUZU1
 62
     7
 10
162.77848346386
 20
118.605279455817
 11
165.128460573158
 21
119.32819734597
  0
LINE
  8
SAKUZU1
 62
     7
 10
162.64650462589
 20
125.835716160427
 11
162.64650462589
 21
118.629774110768
  0
LINE
  8
SAKUZU1
 62
     7
 10
162.77848346386
 20
118.605279455817
 11
162.64650462589
 21
118.629774110768
  0
LINE
  8
SAKUZU1
 62
     7
 10
162.77848346386
 20
125.922627656301
 11
162.64650462589
 21
125.835716160427
  0
LINE
  8
SAKUZU1
 62
     7
 10
163.718463619492
 20
125.109679842964
 11
165.488075415676
 21
124.853437877605
  0
LINE
  8
SAKUZU1
 62
     7
 10
163.716177629536
 20
119.392098284393
 11
163.716177629536
 21
125.11165689591
  0
LINE
  8
SAKUZU1
 62
     7
 10
163.716177629536
 20
119.392098284393
 11
165.488075415676
 21
119.834689547628
  0
LINE
  8
SAKUZU1
 62
     7
 10
163.718463619492
 20
125.109679842964
 11
162.77848346386
 21
125.922627656301
  0
LINE
  8
SAKUZU1
 62
     7
 10
163.716177629536
 20
119.392098284393
 11
162.77848346386
 21
118.605279455817
  0
LINE
  8
SAKUZU1
 62
     7
 10
165.488075415676
 20
124.853437877605
 11
164.914285262835
 21
125.52695849876
  0
LINE
  8
SAKUZU1
 62
     7
 10
165.488075415676
 20
119.834689547628
 11
165.128460573158
 21
119.32819734597
  0
POLYLINE
  8
SAKUZU1
 62
     7
 66
     1
 70
     1
  0
VERTEX
  8
SAKUZU1
 62
     7
 10
164.774835447296
 20
123.240011699542
  0
VERTEX
  8
SAKUZU1
 62
     7
 10
164.686457289104
 20
123.223095428803
  0
VERTEX
  8
SAKUZU1
 62
     7
 10
164.601475453968
 20
123.172996699387
  0
VERTEX
  8
SAKUZU1
 62
     7
 10
164.523155746155
 20
123.091640777367
  0
VERTEX
  8
SAKUZU1
 62
     7
 10
164.454507948112
 20
122.982154125202
  0
VERTEX
  8
SAKUZU1
 62
     7
 10
164.398170156222
 20
122.848744253535
  0
VERTEX
  8
SAKUZU1
 62
     7
 10
164.356307400231
 20
122.696538028916
  0
VERTEX
  8
SAKUZU1
 62
     7
 10
164.330528442376
 20
122.5313846512
  0
VERTEX
  8
SAKUZU1
 62
     7
 10
164.321823953549
 20
122.359630872072
  0
VERTEX
  8
SAKUZU1
 62
     7
 10
164.330528442376
 20
122.187877092944
  0
VERTEX
  8
SAKUZU1
 62
     7
 10
164.356307400231
 20
122.022723715227
  0
VERTEX
  8
SAKUZU1
 62
     7
 10
164.398170156222
 20
121.870517490608
  0
VERTEX
  8
SAKUZU1
 62
     7
 10
164.454507948112
 20
121.737107618941
  0
VERTEX
  8
SAKUZU1
 62
     7
 10
164.523155746155
 20
121.627620966777
  0
VERTEX
  8
SAKUZU1
 62
     7
 10
164.601475453968
 20
121.546265044757
  0
VERTEX
  8
SAKUZU1
 62
     7
 10
164.686457289104
 20
121.49616631534
  0
VERTEX
  8
SAKUZU1
 62
     7
 10
164.774835447296
 20
121.479250044602
  0
VERTEX
  8
SAKUZU1
 62
     7
 10
164.863213605488
 20
121.49616631534
  0
VERTEX
  8
SAKUZU1
 62
     7
 10
164.948195440624
 20
121.546265044757
  0
VERTEX
  8
SAKUZU1
 62
     7
 10
165.026515148438
 20
121.627620966777
  0
VERTEX
  8
SAKUZU1
 62
     7
 10
165.09516294648
 20
121.737107618941
  0
VERTEX
  8
SAKUZU1
 62
     7
 10
165.15150073837
 20
121.870517490608
  0
VERTEX
  8
SAKUZU1
 62
     7
 10
165.193363494361
 20
122.022723715227
  0
VERTEX
  8
SAKUZU1
 62
     7
 10
165.219142452216
 20
122.187877092944
  0
VERTEX
  8
SAKUZU1
 62
     7
 10
165.227846941043
 20
122.359630872072
  0
VERTEX
  8
SAKUZU1
 62
     7
 10
165.219142452216
 20
122.5313846512
  0
VERTEX
  8
SAKUZU1
 62
     7
 10
165.193363494361
 20
122.696538028916
  0
VERTEX
  8
SAKUZU1
 62
     7
 10
165.15150073837
 20
122.848744253535
  0
VERTEX
  8
SAKUZU1
 62
     7
 10
165.09516294648
 20
122.982154125202
  0
VERTEX
  8
SAKUZU1
 62
     7
 10
165.026515148438
 20
123.091640777367
  0
VERTEX
  8
SAKUZU1
 62
     7
 10
164.948195440624
 20
123.172996699387
  0
VERTEX
  8
SAKUZU1
 62
     7
 10
164.863213605488
 20
123.223095428803
  0
SEQEND
  8
SAKUZU1
 62
     7
  0
INSERT
  8
SUNPOUSEN
 62
     7
  2
*X49
 10
0.0
 20
0.0
 30
0.0
  0
INSERT
  8
SUNPOUSEN
 62
     7
  2
*X50
 10
0.0
 20
0.0
 30
0.0
  0
INSERT
  8
SUNPOUSEN
 62
     7
  2
*X51
 10
0.0
 20
0.0
 30
0.0
  0
INSERT
  8
SUNPOUSEN
 62
     7
  2
*X52
 10
0.0
 20
0.0
 30
0.0
  0
INSERT
  8
SUNPOUSEN
 62
     7
  2
*X53
 10
0.0
 20
0.0
 30
0.0
  0
LINE
  8
MOJI
 62
     7
 10
251.079566094904
 20
165.307342634563
 11
391.079566094904
 21
165.307342634563
  0
TEXT
  8
MOJI
 62
     7
 10
259.538889092987
 20
136.483233121622
 40
5.0
  1
（手　動）
 41
0.82
  0
INSERT
  8
SUNPOUSEN
 62
     7
  2
*X54
 10
0.0
 20
0.0
 30
0.0
  0
ENDSEC
  0
EOF
